Oops, an error
Loading. Please wait.

Jenny Was A Friend Of Mine Bass Tab

version 4
version 4
8,583 views 18 this week
1 commentread comment
1 2 3 4 5
please rate
add to favorites
launch autoscroll
font size
0
reset
guitar tuner
Tab Pro tools
  • play this tab
  • loop segment
  • change instrument
  • show fretboard
  • metronome
×
Best way to learn
"Jenny Was A Friend Of Mine"
Autoscroll
slow
fast
+/-
esc
set tempo
stop
Contributor
-------------------------------------------------------------------------------
			     Jenny Was a Friend of Mine - The Killers
-------------------------------------------------------------------------------

Tabbed By :  Grant Fuller

I absolutely love this bass line, but none of the other tabs of this song were right. So 
I tabbed this out by ear, then watched a live video to check exactly where Mark 
Stoermer plays it. This tab is 100% correct.


INTRO
G|----------------|
D|---16--16-16/---|
A|----------------|
E|----------------|


VERSE
G|------------------|---------4-3---|-----------|-------------|
D|--------13-15-16/-|-------------4-|-----------|--------4-3--|
A|-6-6-6------------|-4-4-4---------|-2-2-1-2/--|-2-2-2-----4-|
E|------------------|---------------|-----------|-------------|


PRECHORUS VERSE VARIATION
G|------------------|---------4-3---|-----------|-------------|
D|--------13-15-16/-|-------------4-|-----------|-------------|
A|-6-6-6------------|-4-4-4---------|-2-2-1-2/--|-2-2-2-4--6--|
E|------------------|---------------|-----------|-------------|


CHORUS
(Part A)
G|-----------------|-----------------|-----------------|-----------------|
D|-----------------|-----------------|-----------------|-----------------|
A|-2-2-2-2-2-2-2-2-|-4-4-4-4-4-4-4-4-|-6-6-6-6-6-6-6-6-|-1-1-1-1-1-1-1-1-|
E|-----------------|-----------------|-----------------|-----------------|

(Part B)
G|-----------------|-----------------|---------------------|
D|-----------------|-----------------|-4--4-3--3-----------|
A|-2-2-2-2-2-2-2-2-|-4-4-4-4-4-4-4-4-|-----------6--6-4--4-|
E|-----------------|-----------------|---------------------|

G|-----------------|-----------------|
D|-----------------|-----------------|
A|-2-2-2-2-2-2-2-2-|-4-4-4-4-4-4-4-4-|
E|-----------------|-----------------|


SYNTH BREAK
G|-----------------|
D|-----------------|
A|-6--6--6--6--6-6-| This repeats several times
E|-----------------|


End the song with
G|------------------|---------4-3---|-----------|-------------------|
D|--------13-15-16/-|-------------4-|-----------|-------------------|
A|-6-6-6------------|-4-4-4---------|-2-2-1-2/--|-2-2-2-1-2~-4~-6~--|
E|------------------|---------------|-----------|-------------------|


And here is the order of the song:

INTRO x1
VERSE x5
VARIATION x1
CHORUS (A) x1
CHORUS (B) x1
VERSE x5
VARIATION x1
CHORUS (A) x1
CHORUS (B) x2
SYNTH BREAK
RE-INTRO x1
VERSE x3 (I think mark improvises a little bit here!)
ENDING x1

Have fun!
comments
We did not receive enough feedback on this tab! Please rate:
print report bad tab
1 2 3 4 5
1 comment total.
-1 reply
Lord_Hondros wrote on February 7 2011, 09:20 am

Too bad it's not in standard. It's in Eb Tuning. That and for a lot of parts you're going up and octave too hight

I want to post or [tab]
guest
You may want to rate the tab now too:
select rating
Please do not post tabs as comments. Select "correction" instead!