Oops, an error
Loading. Please wait.

Jenny Was A Friend Of Mine Bass Tab

version 6
version 6
1,000 views 3 this week
no commentswrite comment
1 2 3 4 5
please rate
add to favorites
launch autoscroll
font size
0
reset
guitar tuner
Tab Pro tools
  • play this tab
  • loop segment
  • change instrument
  • show fretboard
  • metronome
×
Best way to learn
"Jenny Was A Friend Of Mine"
Autoscroll
slow
fast
+/-
esc
set tempo
stop
Contributor
Difficulty
Tuning
intermediate
D# G# C# F# A# D#
Song: Jenny Was A Friend Of Mine
Album: Hot Fuss
Band: The Killers
Bassist: Mark Stoermer 

Techniques: 
Slide - / or \
Natural Harmonics - *
Dead Note - x

Check out this link to watch me play the song!
http://www.youtube.com/watch?v=Gv8u-ils8bk


INTRO                     
Gb||-------|-------|-------|-----------12---x-12-12\------|
Db||-------|-------|-------|------------------------------|
Ab||-------|-------|-------|------------------------------|
Eb||-------|-------|-------|------------------------------|

-------------9--11--12----\--|-----------------5--4-----|
-----------------------------|-----------------------5--|
--7---7-7--------------------|--5--x-5-5-5--------------|
-----------------------------|--------------------------|
 
----------------------------|------------------------|
----------------------------|-------------5---4------|
--3---3--x-2--3---\-----1-2-|--3---3---5----------5--|
----------------------------|------------------------|
 
--------------9--11--12----\--|-----------------5--4-----|
------------------------------|-----------------------5--|
--7---\-----------------------|--5--x-5-5-5--------------|
---------0--------------------|--------------------------|
 
----------------------------|------------------------|
----------------------------|-------------5---4------|
--3---3--x-2--3---\-----1-2-|--3---3---5----------5--|
----------------------------|------------------------|


VERSE  
--------------9--11--12----\--|-----------------5--4-----|
------------------------------|-----------------------5--|
--7---\-----------------------|--5--x-5-5-5--------------|
---------0--------------------|--------------------------|

----------------------------|------------------------|
----------------------------|-------------5---4------|
--3---3--x-2--3---\-----1-2-|--3---3---5----------5--|
----------------------------|------------------------|
  
--------------9--11--12----\--|-----------------5--4-----|
------------------------------|-----------------------5--|
--7---\-----------------------|--5--x-5-5-5--------------|
---------0--------------------|--------------------------|
  
----------------------------|------------------------|
----------------------------|-------------5---4------|
--3---3--x-2--3---\-----1-2-|--3---3---5----------5--|
----------------------------|------------------------|
 
-------------------------|-----------------5--4-----|
-------------------------|-----------------------5--|
--7---\------------------|--5--x-5-5-5--------------|
---------0----0--2--3----|--------------------------|

----------------------------|------------------------|
----------------------------|-------------5---4------|
--3---3--x-2--3---\-----1-2-|--3---3---5----------5--|
----------------------------|------------------------|
 
--------------9--11--12----\--|-----------------5--4-----|
------------------------------|-----------------------5--|
--7---\-----------------------|--5--x-5-5-5--------------|
---------0--------------------|--------------------------|

----------------------------|--------------------------|
----------------------------|--------------------------|
--3---3--x-2--3---\-----1-2-|--3--3--3--3--5--5--5--5--|
----------------------------|--------------------------|


Chorus 
------------------------------|------------------------------|
------------------------------|------------------------------|
--3--3-3-3--3-3-3--3-3-3--3-3-|--5--5-5-5--5-5-5--5-5-5--5-5-|
------------------------------|------------------------------|

------------------------------|------------------------------|
------------------------------|------------------------------|
--7--7-7-7--7-7-7--7-7-7--7-7-|--2--2-2-2--2-2-2--2-2-2--2-2-|
------------------------------|------------------------------|

------------------------------|------------------------------|
------------------------------|------------------------------|
--3--3-3-3--3-3-3--3-3-3--3-3-|--5--5-5-5--5-5-5--5-5-5--5-5-|
------------------------------|------------------------------|
  
------------------------------|--------------------------|
------------------------------|--------------------------|
--10--10--10--10--9--9--9--9--|--7--7--7--7--5--5--5--5--|
------------------------------|--------------------------|
 
--------------------------|-------------------------------|
--------------------------|-------------------------------|
--3--3--3--3--3--3--3--3--|--5--5--5--5-/-17--17--17--17--|
--------------------------|-------------------------------|

INTRO

VERSE

CHORUS  (A bit longer)
------------------------------|------------------------------|
------------------------------|------------------------------|
--3--3-3-3--3-3-3--3-3-3--3-3-|--5--5-5-5--5-5-5--5-5-5--5-5-|
------------------------------|------------------------------|

------------------------------|------------------------------|
------------------------------|------------------------------|
--7--7-7-7--7-7-7--7-7-7--7-7-|--2--2-2-2--2-2-2--2-2-2--2-2-|
------------------------------|------------------------------|

------------------------------|------------------------------|
------------------------------|------------------------------|
--3--3-3-3--3-3-3--3-3-3--3-3-|--5--5-5-5--5-5-5--5-5-5--5-5-|
------------------------------|------------------------------|

------------------------------|--------------------------|
------------------------------|--------------------------|
--10--10--10--10--9--9--9--9--|--7--7--7--7--5--5--5--5--|
------------------------------|--------------------------|
 
--------------------------|--------------------------|
--------------------------|--------------------------|
--3--3--3--3--3--3--3--3--|--5--5--5--5--5--5--5--5--|
--------------------------|--------------------------|

------------------------------|------------------------------|
------------------------------|------------------------------|
--3--3-3-3--3-3-3--3-3-3--3-3-|--5--5-5-5--5-5-5--5-5-5--5-5-|
------------------------------|------------------------------|

------------------------------|--------------------------|
------------------------------|--------------------------|
--10--10--10--10--9--9--9--9--|--7--7--7--7--5--5--5--5--|
------------------------------|--------------------------|

--------------------------|-------------------------------|
--------------------------|-------------------------------|
--3--3--3--3--3--3--3--3--|--5--5--5--5-/-14--14--14--14--|
--------------------------|-------------------------------|

BREAK              
-------------------|-------------------|
-------------------|-------------------|
-------------------|-------------------|
--0----------------|-------------------|
                    *   *      *
--------------------5-5-|----5----*---------|
------------------------|---------5------*--|
------------------------|----------------7--|
------------------------|-------------------|
            
----------------|----------------|----------------|-----------12--12\-----|
----------------|----------------|----------------|-----------------------|
----------------|----------------|----------------|-----------------------|
----------------|----------------|----------------|-----------------------|


OUTRO (Same as Verse)
-------------------||
-------------------||
--7----------------||
-------------------||
comments
We did not receive enough feedback on this tab! Please rate:
print report bad tab
1 2 3 4 5
I want to post or [tab]
guest
You may want to rate the tab now too:
select rating
Please do not post tabs as comments. Select "correction" instead!