Oops, an error
Loading. Please wait.

Joy Ride Bass Tab

version 1
version 1

Whole song

7,705 views 4 this week
2 commentsread comments
1 2 3 4 5
worth learning
x 8
add to favorites
launch autoscroll
font size
0
reset
guitar tuner
Tab Pro tools
  • play this tab
  • loop segment
  • change instrument
  • show fretboard
  • metronome
×
Best way to learn
"Joy Ride"
Autoscroll
slow
fast
+/-
esc
set tempo
stop
Contributor
Track number 4 from the Killer's album Day and Age.- Please rate

Tuning: standard

Intro/verse - play till 0:42
--------------------------------------------------------------------|
--7-7-5h7-7-5---5-----------------7-7-5h7-7-5---5-------------------|
--------------7---5-5-7p5-5-7-8---------------7---5-5-7p5-5-7-0-----|
--------------------------------------------------------------------|

Chorus:  listen to how the 3's are played for the pattern
------------------------------------------------------------------------|
-----------------3 3333-3-3-3333-3-3----------------3-3333-3-5-5555-5---|
-------------------------------------------5-53-3-----------------------|
-3-3-3-3-5-5-5-5---------------------3-35-5-----------------------------|

pause for drum fill

Play verse through the saxaphone solo

after solo play verse till 1:19

pause till 1:26 and play
----------|
-----57---|
--578-----|
----------|

pause again till chorus at 1:35

play chorus twice but the change final 5's to 2's on the same string

Bridge
------------------------------------------7-7777-7-7-7777-7-7----------------|
--5x8--2x8--7x8--3x8--5x8--2x8--7x8------------------------------------------|
-------------------------------------5x8---------------------8-8888-8-8-8888-|
-----------------------------------------------------------------------------|

chorus x1

then play
--7-7777-7-7-------------7-7777-7-7--------------|
--------------5-5555-5-5------------3-333-3-3----|
-------------------------------------------------|
-------------------------------------------------|

-5-5555-5-5-----------------------------------|
------------7-7777-7-7-3-3333-3-3-2-2222-2-2--|
----------------------------------------------|
----------------------------------------------|

-------------------------7-7777-7-7--------------|
--7-7777-7-7-3-3333-3-3-------------5-5555-5-5---|
-------------------------------------------------|
-------------------------------------------------|

--5-5555-5-5-------------5-5555-5-5---------------|
-------------7-7777-7-7-------------3-3333-3-3--7-|
--------------------------------------------------|
--------------------------------------------------|

Enjoy!
I would appreciate any comments and ratings.
comments
print report bad tab
2 comments total.
0 reply
DomStables wrote on December 28 2008, 04:30 am

G|------------------------------|
D|-7-7--5-7-5---5---------------|
A|------------7-----5-5--3-5-7-8|
E|------------------------------|

second part of verse is the same but with "0" at the end rather tahn "8". im pretty sure that is right.

0 reply
DomStables wrote on December 28 2008, 04:36 am

and the chorus/ outro are playing octaves... like
G|-10-10---10---10|
D|----------------|
A|8-------8---8---|
E|----------------| etc..

I want to post or [tab]
guest
You may want to rate the tab now too:
select rating
Please do not post tabs as comments. Select "correction" instead!