Oops, an error
Loading. Please wait.

Losing Touch Bass Tab

version 1
version 1

Whole song

Interactive

3,895 views 1 this week
1 commentread comment
1 2 3 4 5
worth learning
x 2
add to favorites
launch autoscroll
font size
0
reset
guitar tuner
Tab Pro tools
  • play this tab
  • loop segment
  • change instrument
  • show fretboard
  • metronome
Autoscroll
slow
fast
+/-
esc
set tempo
stop
Contributor
This is a song from new Killers album.
The bass part is tricky at first but once you find how it goes it's easy.

Album: Day and Age
Tuning: Standard

/=slide
h=hammer on
p=pull off
x=times an amount

Intro at 00:13       (16 = sixteen)
------------------------------|
----------------------6-6-----|
-44444444/1616161616----------|
------------------------------|

Verse x4
-------------------------------------------------4-4---|
--6-6-4-6/1-4h6-6-6-4-6--------------------------------|
-----------------------024-4-4-2-4/1-2h4-4-4-2-4-------|
-------------------------------------------------------|

Chorus
---------------------------------------------------|
----------------------------------6-6--------------|
-7x8--2x8-----------7x8--2x8-----------------------|
-----------2x8--4x8----------2x14------------------|

Verse x3

Chorus x1 (but don't play the final -6-6) play the 4 till next part.

Bridge part 1   x2
-----------------------------------------------------|
---------------------------4-6-6-4-6--6-6------------| Play the verse like part
--2---2-----4---4-----2x16---------------------------|only the second time.
-------2---------4-----------------------------------|

bridge part 2  x2
-----------------------------------------------------|
--6-6-4-6/1-6-6-4-6----------------------------------|
-------------------------4-4-2-4/1-4-4-2-4--2-4------|
-----------------------------------------------------|

pause

come in at 2:35 
--------------------------------------------|
--------------------------------------------|
--7x8-/-2x8-----------7x8-/-2x8-------------|
------------2x8--4x8------------2x8-/-14x8--|

play the Bridge part 1 till the end. Through the guitar solo.

You can add fills like
-------------------------------------------------------|
-------------------------------------------------------|
--2------4-------2220222022202020----------------------|
-----2-------4-----------------------------------------|

The new album is amazing. Here's a track listing

1: Losing Touch
2: Human
3: Spaceman
4: Joy Ride----Great bass part i'll try to put it up.
5: A Dustland Fairytale
6: This id your life
7: I can't stay
8: Neon tiger
9: The World we live in
10: Goodnight, travel well.
comments
We did not receive enough feedback on this tab! Please rate:
print report bad tab
1 2 3 4 5
1 comment total.
0 reply
CarlAreBassists wrote on November 29 2008, 03:28 pm

i cant believe anyone would post a tab if they're not 100% sure its correct.

most of this is wrong.

e.g. A|-2's in the chorus are E|-0's

I want to post or [tab]
guest
You may want to rate the tab now too:
select rating
Please do not post tabs as comments. Select "correction" instead!