Oops, an error
Loading. Please wait.

Midnight Show Bass Tab

version 1
version 1

Whole song

Interactive

5,660 views 6 this week
1 commentread comment
1 2 3 4 5
excellent!
x 5
add to favorites
launch autoscroll
font size
0
reset
guitar tuner
Tab Pro tools
  • play this tab
  • loop segment
  • change instrument
  • show fretboard
  • metronome
×
Best way to learn
"Midnight Show"
Autoscroll
slow
fast
+/-
esc
set tempo
stop
Contributor
Intro/Chorus1
Gb|--------------------------------------------------------------------------|
Db|--------------------------------------------7---7h9---------7---7h9-------|
Ab|--------------------------------------------------------------------7-----|
Eb|--12-12-0-0-12-0-0-12---12-0-0-12-0-0-0-7-7-----------7---7---------------|

Gb|----------------------------------------------------------------------------|
Db|-------5--5h7---------5---5h7-----------------------------------------------|
Ab|------------------------------5---------------------------------------------|
Eb|--5-5-----------5---5-------------3-3-3-3-3-3-3/10---10-10-10-10-10-10-10---|

Verse1
Gb|----------------------------------------------------------------------------|
Db|----------------------------------------------------------------------------|
Ab|------------9h10---------------9h10p9---------------------------------------|
Eb|--12-0-10-0--------12---0-10-0----------7-0-5-0-9h10---7---0-5-0-9h10p9-----| X2

Pre-Chorus
Gb|--------------------------------------------------------------------------|
Db|--------------------------------------------------------------------------|
Ab|--------------------------------------------9h10---------------9h10p9-----|
Eb|--8p0-8---8---8---7---7---7---7---12-0-10-0--------12---0-10-0------------|

Gb|------------------------------------------------------------------------------|
Db|------------------------------------------------------------------------------|
Ab|-------------------------------------------------------------------------10--|
Eb|--8p0-8---8---8---7---7---7---7---10-10-10-10-10-10-10-10-10------------------|

Chorus1

Verse2
Gb|------------------------------------------------------------------------------|
Db|------------------------------------------------------------------------------|
Ab|------------9h10---------------9h10p9-------------9h10-------------9h10p9-----|
Eb|--12-0-10-0--------12---0-10-0----------12-0-10-0------12---0-10-0------------|

Gb|----------------------------------------------------------------------------|
Db|----------------------------------------------------------------------------|
Ab|----------------------------------------------9h10-------------9h10p9-------|
Eb|--7-0-5-0-9h10---7---0-5-0-9h10p9---12-0-10-0------12---0-10-0--------------|

Verse1

Pre-Chorus

Chorus1

Guitar Solo/Chorus2
Gb|--------------------------------------------------------------------------|
Db|--------------------------------------------7---7h9---------7---7h9-------|
Ab|--------------------------------------------------------------------7-----|
Eb|--12-12-0-0-12-0-0-12---12-0-0-12-0-0-0-7-7-----------7---7---------------|

Gb|--------------------------------------------------------------------|
Db|-------5--5h7---------5---5h7---------------------------------------|
Ab|------------------------------5-------------------------------------|
Eb|--5-5-----------5---5-------------3-3-3-3-3-5-3-2---2-2-2-2-3-2-2---|

Bridge
Gb|--------------------------------------------------------------------|
Db|--------------------------------------------------------------------|
Ab|--------------------------------------------------------------------|
Eb|--8~--------------7~--------------0~--------------2-----3-----5-----| X2

Gb|--------------------------------------------------------------------|
Db|--------------------------------------------------------------------|
Ab|--------------------------------------------------------------------|
Eb|--8p0-8---8---8-8-7---7---7---7-7-5---5---5-5---5---5-5---5-5-5-5---|

Gb|----------------------------------------------------------------------------|
Db|----------------------------------------------------------------------------|
Ab|----------------------------------------------------------------------------|
Eb|--3---3---3-3---3---3-3---3-3-3-3-2-2-2-2-2-2-2-2/10-10-10-10-10-10-10-10---|

Chorus1 X2

Chorus2

Chorus1
comments
print report bad tab
1 comment total.
0 reply
guitarboy48 wrote on February 2 2009, 03:53 pm

perfect

I want to post or [tab]
guest
You may want to rate the tab now too:
select rating
Please do not post tabs as comments. Select "correction" instead!