Oops, an error
Loading. Please wait.

Midnight Show Tab

version 1
version 1

Whole song

Interactive

9,132 views 3 this week
6 commentsread comments
1 2 3 4 5
worth learning
x 13
add to favorites
launch autoscroll
font size
0
reset
how to read this tab
guitar tuner
Tab Pro tools
  • play this tab
  • loop segment
  • change instrument
  • show fretboard
  • metronome
Autoscroll
slow
fast
+/-
esc
set tempo
stop
----------------------------------------------------------------------------
                        Midnight Show- The Killers
---------------------------------------------------------------------------
Tabbed by:Rachel
Email:ijustcantwaittilsaturday@hotmail.com


Right so this is mostly tablature and a bit of chords cos i'm a bit lazy like that!
intro-
e|---------------------|
B|---------------------|
G|---------------------|
D|--8------------------|
A|--6-----8-----6------|
E|--------6-----4------|   strum each chord for 2 bars and the next two for one bar each:
e|---------------------|
B|---------------------|
G|---------------------|
D|-----6---------------|
A|-4---4---------------|
E|-2-------------------|

for the verse use thses chords and listen to the track for timing of strumming and muting:

e|--11------------------------------10-------------------------------|
B|--11------------------------------11-------------------------------|
G|--12------------------------------10-------------------------------|
D|-------------------------------------------------------------------|
A|-------------------------------------------------------------------|
E|-------------------------------------------------------------------|
    i know what you want,i'm gonna take you to a midnight show tonight,
   if you can keep a secret i got a  ??????in the back seat on my mind and

BRIDGE:
   B                 Bm
a little place that sits beneath the sky    -then play this littel riff:
e|--------6-----------------------------------------------------------------|
B|----------7-6-7-----------------------------------------------------------|
G|-----8--------------------------------------------------------------------|
D|---8----------------------------------------------------------------------|
A|--------------------------------------------------------------------------|
E|--------------------------------------------------------------------------|

     B                  Bm                C
she turned her face to speak, but no one heard her cry


The CHORUS is the same as the intro


verse 2

e|7-6--------------------7-6------------------------------------------------|
B|---------------------------7----------------------------------------------|
G|--------------------------------------------------------------------------|
D|--------------------------------------------------------------------------|
A|--------------------------------------------------------------------------|
E|--------------------------------------------------------------------------|
    i know theres no hope, there's too many people tryin' to help me cope,

e|7-6----------------------------7-6-----------------------------------------|
B|-----------------------------------7---------------------------------------|
G|-------------------------------------8-------------------------------------|
D|---------------------------------------------------------------------------|
A|---------------------------------------------------------------------------|
E|---------------------------------------------------------------------------|
     you got a real short skirt, i wanna look up look up look up yeah yeah
Then it goes back to the two chords in the first verse:
e|--11------------------------------------------10-------------------|
B|--11------------------------------------------11-------------------|
G|--12------------------------------------------10-------------------|
D|-------------------------------------------------------------------|
A|-------------------------------------------------------------------|
E|-------------------------------------------------------------------|
  We were just in time, let me take a little more off your mind,
 There's something in my head, somewhere in the back sayin we were just
                                        good thing we were such a good thing

then back to the Bridge and chorus, same as before.
when Mr Flowers sings "oh nooo" go to solo:

e|---------------------------6----------------------------------------|
B|7--6------7---6--------------7-6-7----------------------------------|
G|-8--6-8-----8---8-6------8---------6--------------------------------|
D|-------8------------6--8-------------8-7-6--------------------------|
A|-------------------------------------------9-6----------------------|
E|--------------------------------------------------------------------|


last bridge:
      B                   Bm
the crashing tide can't hide a guilty girl    [bridge riff]
      B                    Bm                       [riff]
with jealous hearts that start with gloss and curls(?)
    B              Bm               [riff]
i took my baby's breath beneath the chandelear
              [riff]
of stars and atmosphere
                [riff]
and watched her disappear

into the midnight show  -chorus(repeat those power chords till the end mateys!)


| /  slide up
| \  slide down
| h  hammer-on
| p  pull-off
| ~  vibrato
| +  harmonic
| x  Mute note

Sorry i can't tab well, mainly cos i'm a lazy sod.
feel free to email with corrections/additions, and if any of you live in essex and wanna 
a band,email me!
comments
print report bad tab
6 comments total. Showing first comments.
+2 reply
1BADguitarist wrote on March 26 2005, 12:00 am

the misin words blankit.... i think

0 reply
1BADguitarist wrote on March 26 2005, 12:00 am

gr8 tab tho

+1 reply
sam allen rules wrote on December 17 2005, 02:05 pm

just wrong

I want to post or [tab]
guest
You may want to rate the tab now too:
select rating
Please do not post tabs as comments. Select "correction" instead!