Oops, an error
Loading. Please wait.

Miss Atomic Bomb bass

2,637 views 9 this week
5 commentsread comments
1 2 3 4 5
x 3
add to favorites
×
Save as Personal and add changes to this tab that will be seen only by you. Learn more ›
×
You can save this tab as Personal to edit and correct it or add notes. All changes will be seen only by you. Learn more »
launch autoscroll
font size
0
reset
guitar tuner
edit
Autoscroll
slow
fast
+/-
esc
set tempo
stop
-----------------------------------------------------------------------------
                             Miss Atomic Bomb - The Killers
-----------------------------------------------------------------------------

Tabbed by: Country Bass
E-mail: aaron.white8@education.nsw.gov.au

This is a VERY SIMPLE tab for Miss Atomic Bomb for beginner bassists

Tuning: Standard

Bass comes in at 1:53

Bridge

G|-------------------------------------------------------------------|
D|-------------------------------------------------------------------|
A|----------------------------------8-8-8-8-8-8-8-8-8-8--8-8-8-8-8-8-|
E|--6-6-6-6-6-6-6-6-6-6-6-6-6-6-6-6----------------------------------|

G|----------------------------------------------------------------|
D|----------------------------------------------------------------|
A|--6-6-6-6-6-6-6-6-6-6-6-6-6-6-6-6-9-9-9-9-9-9-8-8-8-8-8-8-8-8-8-|
E|----------------------------------------------------------------|

Verse 2

G|------------------------------------------------------------------|
D|------------------------------------------------------------------|
A|----------------------------------8-8-8-8-8-8-8-8-8-8-8-8-8-8-8-8-|
E|--6-6-6-6-6-6-6-6-6-6-6-6-6-6-6-6---------------------------------|

G|------------------------------------------------------------------|
D|------------------------------------------------------------------|
A|--6-6-6-6-6-6-6-6-9-9-9-9-9-9-9-9-4-4-4-4-4-4-4-4-9-9-9-9-8-8-8-8-|
E|------------------------------------------------------------------|

"It feels just like a dagger..."

G|------------------------------------------|
D|------------------------------------------|
A|----------------------------------8-(x32)-|
E|--6-6-6-6-6-6-6-6-6-6-6-6-6-6-6-6---------|

G|--------------------------------------------------| |-----------------|
D|--------------------------------------------------| |-----------------|
A|--6-6-6-6-6-6-6-6-9-9-9-9-9-9-9-9-4-4-4-4-4-4-4-4-| |-9-9-9-9-8-8-8-8-| x2
E|--------------------------------------------------| |-----------------|

Pre-Chorus

G|------------------------------------------|
D|------------------------------------------|
A|--6-6-6-6-6-6-6-6-6-6-6-6-6-6-6-6-9-(x32)-|
E|------------------------------------------|

G|-----------------------------------------------------------------|
D|-----------------------------------------------------------------|
A|-6-6-6-6-6-6-6-6-6-6-6-6-6-6-6-6-6-6-6-6-6-6-6-6-6-6-6-6-6-6-6-6-|
E|-----------------------------------------------------------------|

Chorus

G|------------------------------------------------------------------|
D|------------------------------------------------------------------|
A|----------------------------------8-8-8-8-8-8-8-8-8-8-8-8-8-8-8-8-| x2
E|--6-6-6-6-6-6-6-6-6-6-6-6-6-6-6-6---------------------------------|

G|------------------------------------------------------------------|
D|------------------------------------------------------------------|
A|--6-6-6-6-6-6-6-6-9-9-9-9-9-9-9-9-4-4-4-4-4-4-4-4-9-9-9-9-8-8-8-8-|
E|------------------------------------------------------------------|

Interlude

G|---------|
D|---------|
A|---------|
E|--6~~~~~-|


No Bass until 1:53
Bridge
Verse 2
Pre-Chorus
Chorus
Interlude
Chorus x2


| /  slide up
| \  slide down
| h  hammer-on
| p  pull-off
| ~  vibrato
| +  harmonic
| x  Mute note
=============================================================================

            
            
Suggest correction
Creating personal tab
Creating personal tab
You can edit any tab online and save it as your Personal.

You can edit, replace or remove any tab part or add personal notes – all changes will be seen only by you.

Personal tabs can be accessed anytime from any device, even offline.
Learn more »
Give kudos to tab author, rate the tab!
1 2 3 4 5
comments
print report bad tab
5 comments total. Showing first comments.
0 reply
Country Bass 2,969 Oct 11, 2013 08:36 PM

I'm sorry This tab is so simple, I will put up a better version of the tab as soon as possible

0 reply
Country Bass 2,969 Oct 18, 2013 05:11 PM

I am trying to put up a better version of the song but I am having trouble, but when I put up the full album tab the better version will be in there

0 reply
Kunal619 10 Nov 13, 2014 05:44 AM

Hi I have a question.

When you write

It feels just like a dagger..

and write x 32. do you mean play the 8th fret of the a string 32 times?

Sorry if its a bit of a dumb question but I am new to music.

Thanks,

Kunal

guest
You may want to rate the tab now too:
select rating
Wanna post a correction for this tab? Suggest correction