Oops, an error
Loading. Please wait.

Mr Brightside Bass Tab

version 2
294,648 views 585 this week
30 commentsread comments
1 2 3 4 5
excellent!
x 194
add to favorites
launch autoscroll
font size
0
reset
guitar tuner
Tab Pro tools
  • play this tab
  • loop segment
  • change instrument
  • show fretboard
  • metronome
×
Best way to learn
"Mr Brightside"
Autoscroll
slow
fast
+/-
esc
set tempo
stop
[Intro]

Come in at the start of the "It started out with a kiss..." bar

G|--6-6-6-6-6-6-6-6--5-5-5-5-5-5-5-5-----------------------------------|
D|------------------------------------4-4-4-4-4-4-4-4-4-4-4-4-4-4-4-4--|
A|---------------------------------------------------------------------|
E|---------------------------------------------------------------------|


[Verse 1] 

G-|-------------------------------------------------------------------|
D-|-------------------------------------------------------------------|
A-|-4-4-4-4-4-4-4-4--3-3-3-3-3-3-3-3----------------------------------|
E-|----------------------------------2-2-2-2-2-2-2-2-2-2-2-2-2-2-2-2--|

G|--------------------------------------------------------------------|
D|-----------------------------------/4-4-4-4-4-4-4-4-4-4-4-4-4-4-4-4-|
A|--4-4-4-4-4-4-4-4--3-3-3-3-3-3-3-3----------------------------------|
E|--------------------------------------------------------------------|


[Bridge]

G|---------------------------------------------------------|
D|---------------------------------------------------------|
A|---------8-6-4---------8-6-4---------6-4-1---------1-3-4-|
E|-6-6-6-6-------4-4-4-4-------2-2-2-2-------2-2-2-2-------|

G|--------------------------------------------------------------------------------------------|
D|--------------------------------------------------------------------------------4-4-4-4-4-4-|
A|----------8-6-4---------8-6-4---------------------------------------------------------------|
E|--6-6-6-6-------4-4-4-4-------1-2-2-2-2-2-2-2-1-2-2-2-2-2-2-2-1-2-2-2-1-2-2-2-1-------------|


[Chorus]

(Part A)  G|----------------------------------------------------------------------|    (x 2)
          D|--------------------4-4-4-4-4-4-4-4-----------------------------------|
          A|--4-4-4-4-4-4-4-4-----------------------------------------------------|
          E|------------------------------------6-6-6-6-6-6-6-6--4-4-4-4-4-4-4-4--|

G|---------------------------------------------------------------------|
D|---------------------------------------------------------------------|
A|--4-4-4-4-4-4-4-4----------------------------------------------------|
E|------------------2-2-2-2-2-2-2-2--6-6-6-6-6-6-6-6---4-4-4-4-4-4-4-4-|

G|---------------------------------------------------------------------|
D|------------------4-4-4-4-4-4-4-4--8-8-8-8-8-8-8-8---6-6-6-6-6-6-6-6-|
A|--4-4-4-4-4-4-4-4----------------------------------------------------|
E|---------------------------------------------------------------------|

Repeat Chorus Part A during synth break


[Verse 2]

G|-------------------------------------------------------------------|
D|-------------------------------------------------------------------|
A|--4-4-4-4-4-4-4-4--3-3-3-3-3-3-3-3---------------------------------|
E|-----------------------------------2-2-2-2-2-2-2-2-2-2-2-2-2-2-2-2-|

G|----------------------------------------------------|
D|----------------------------------------------------|
A|--4-4-4-4-4-4-4-4--3-3-3-3-3-3-3-3--------------9/4-|
E|-----------------------------------2----------------|

G|--------------------------------------------------------------------|
D|--------------------------------------------------------------------|
A|--4-4-4-4-4-4-4-4--3-3-3-3-3-3-3-3----------------------------------|
E|-----------------------------------2-2-2-2-2-2-2-2-2-2-2-2-2-2-2-2--|

G|-------------------------------------------------------------------|
D|-----------------------------------4-4-4-4-4-4-4-4-4-4-4-4-4-4-4-4-|
A|--4-4-4-4-4-4-4-4--3-3-3-3-3-3-3-3---------------------------------|
E|-------------------------------------------------------------------|


[Bridge]

G-|---------------------------------------------------------|
D-|---------------------------------------------------------|
A-|---------8-6-4---------8-6-4---------6-4-1---------1-3-4-|
E-|-6-6-6-6-------4-4-4-4-------2-2-2-2-------2-2-2-2-------|

G|--------------------------------------------------------------------------------------------|
D|--------------------------------------------------------------------------------4-4-4-4-4-4-|
A|----------8-6-4---------8-6-4---------------------------------------------------------------|
E|--6-6-6-6-------4-4-4-4-------1-2-2-2-2-2-2-2-1-2-2-2-2-2-2-2-1-2-2-2-1-2-2-2-1-------------|


[Chorus]

G|----------------------------------------------------------------------|    (x 2)
D|--------------------4-4-4-4-4-4-4-4-----------------------------------|
A|--4-4-4-4-4-4-4-4-----------------------------------------------------|
E|------------------------------------6-6-6-6-6-6-6-6--4-4-4-4-4-4-4-4--|

G|---------------------------------------------------------------------|
D|---------------------------------------------------------------------|
A|--4-4-4-4-4-4-4-4----------------------------------------------------|
E|------------------2-2-2-2-2-2-2-2--6-6-6-6-6-6-6-6---4-4-4-4-4-4-4-4-|

G|---------------------------------------------------------------------|
D|------------------4-4-4-4-4-4-4-4--8-8-8-8-8-8-8-8---6-6-6-6-6-6-6-6-|
A|--4-4-4-4-4-4-4-4----------------------------------------------------|
E|---------------------------------------------------------------------|


[Breakdown]

G|------------------------------------|  (x 2)
D|--3---------------------------------|
A|-----------4------------------------|
E|-------------------6-------4--------|


[Chorus]

G|----------------------------------------------------------------------|    (x 2)
D|--------------------4-4-4-4-4-4-4-4-----------------------------------|
A|--4-4-4-4-4-4-4-4-----------------------------------------------------|
E|------------------------------------6-6-6-6-6-6-6-6--4-4-4-4-4-4-4-4--|

G|---------------------------------------------------------------------|
D|---------------------------------------------------------------------|
A|--4-4-4-4-4-4-4-4----------------------------------------------------|
E|------------------2-2-2-2-2-2-2-2--6-6-6-6-6-6-6-6---4-4-4-4-4-4-4-4-|

with a flourish at the end:

G|--------------------------------------------------------------|
D|------------------4-4-4-4-4-4-4-4--8-8-8-8-8-8-8-8--6---------|
A|--4-4-4-4-4-4-4-4-------------------------------------6-------|
E|--------------------------------------------------------4-----|



************************************

| /  Slide up

************************************
comments
print report bad tab
30 comments total. Showing first comments. show 1 bad comment
+6 reply
KRYOS wrote on October 14 2006, 08:14 pm

that was good it was easy to read and understand, definately worth 5 stars

+1 reply
punk_isntemo12 wrote on December 14 2006, 01:07 am

i dont see whats wrong with the chorus, but yeah good tab!!

I want to post or [tab]
guest
You may want to rate the tab now too:
select rating
Please do not post tabs as comments. Select "correction" instead!