Oops, an error
Loading. Please wait.

Mr Brightside Bass Tab

version 4
3,000 views 6 this week
no commentswrite comment
1 2 3 4 5
please rate
add to favorites
launch autoscroll
font size
0
reset
guitar tuner
Tab Pro tools
  • play this tab
  • loop segment
  • change instrument
  • show fretboard
  • metronome
×
Best way to learn
"Mr Brightside"
Autoscroll
slow
fast
+/-
esc
set tempo
stop
Artist	  : The Killers
Song	  : Mr Brightside
Tabbed by : ejmz11

Intro
G|------|------|------|------|
D|--R---|--R---|--R---|--R---|
A|------|------|------|------|
E|------|------|------|------|


Verse
G|------|------|------|------|-------------------------|-------------------------|-----------------|-----------------|
D|--R---|--R---|--R---|--R---|-11-11-11-11-11-11-11-11-|-10-10-10-10-10-10-10-10-|-----------------|-----------------|
A|------|------|------|------|-------------------------|-------------------------|-9-9-9-9-9-9-9-9-|-9-9-9-9-9-9-9-9-|
E|------|------|------|------|-------------------------|-------------------------|-----------------|-----------------|

G|-----------------|-----------------|-----------------|-----------------|-----------------|-----------------|
D|-----------------|-----------------|-----------------|-----------------|-----------------|-----------------|
A|-4-4-4-4-4-4-4-4-|-3-3-3-3-3-3-3-3-|-----------------|-----------------|-4-4-4-4-4-4-4-4-|-3-3-3-3-3-3-3-3/|
E|-----------------|-----------------|-2-2-2-2-2-2-2-2-|-2-2-2-2-2-2-2-2-|-----------------|-----------------|

G|-----------------|-----------------|
D|-----------------|-----------------|
A|-9-9-9-9-9-9-9-9-|-9-9-9-9-9-9-9-9-|
E|-----------------|-----------------|


Bridge
G|------|---------|------|---------|------|---------|------|---------|------|---------|------|---------|
D|------|---------|------|---------|------|---------|------|---------|------|---------|------|---------|
A|------|-8--6--4-|------|-8--6--4-|------|-6--4--3-|------|---------|------|-8--6--4-|------|-8--6--4-|
E|--9---|---------|--4---|---------|--2---|---------|--2---|-6--8--9-|--6---|---------|--4---|---------|

G|-------------------|-------------------|-----------------|-------------------------|
D|-------------------|-------------------|-----------------|-------------------------|
A|-------------------|-------------------|-----------------|-------------------------|
E|-1h2-2-2-2-2-2-2-2-|-1h2-2-2-2-2-2-2-2-|-1h2-2-2-1h2-2-2/|-14-14-14-14-14-14-14-14-|


Chorus
G|-----------------|-----------------|-----------------|-----------------|
D|-----------------|-----------------|-----------------|-----------------|
A|-----------------|-9-9-9-9-9-9-9-9-|-----------------|-----------------|  x2
E|-9-9-9-9-9-9-9-9-|-----------------|-6-6-6-6-6-6-6-6-|-4-4-4-4-4-4-4-4-|


G|-----------------|-----------------|-----------------|-----------------|
D|-----------------|-----------------|-----------------|-----------------|
A|-4-4-4-4-4-4-4-4-|-----------------|-----------------|-----------------|
E|-----------------|-2-2-2-2-2-2-2-2-|-6-6-6-6-6-6-6-6-|-4-4-4-4-4-4-4-4-|

G|-----------------|-----------------|-------------------------|-------------------------|
D|-----------------|-----------------|-------------------------|-------------------------|
A|-4-4-4-4-4-4-4-4/|-9-9-9-9-9-9-9-9/|-13-13-13-13-13-13-13-13-|-11-11-11-11-11-11-11-11-|
E|-----------------|-----------------|-------------------------|-------------------------|


Interlude 1
G|-----------------|-----------------|-----------------|-----------------|
D|-----------------|-----------------|-----------------|-----------------|
A|-----------------|-9-9-9-9-9-9-9-9-|-----------------|-----------------|  x2
E|-9-9-9-9-9-9-9-9-|-----------------|-6-6-6-6-6-6-6-6-|-4-4-4-4-4-4-4-4-|


Verse
G|-----------------|-----------------|-----------------|-----------------|-----------------|-----------------|------|------|
D|-----------------|-----------------|-----------------|-----------------|-----------------|-----------------|------|--R---|
A|-4-4-4-4-4-4-4-4-|-3-3-3-3-3-3-3-3-|-----------------|-----------------|-4-4-4-4-4-4-4-4-|-3-3-3-3-3-3-3-3-|------|------|
E|-----------------|-----------------|-2-2-2-2-2-2-2-2-|-2-2-2-2-2-2-2-2-|-----------------|-----------------|-2----|------|

G|-----------------|-----------------|-----------------|-----------------|-----------------|-----------------|
D|-----------------|-----------------|-----------------|-----------------|-----------------|-----------------|
A|-4-4-4-4-4-4-4-4-|-3-3-3-3-3-3-3-3-|-----------------|-----------------|-4-4-4-4-4-4-4-4-|-3-3-3-3-3-3-3-3/|
E|-----------------|-----------------|-2-2-2-2-2-2-2-2-|-2-2-2-2-2-2-2-2-|-----------------|-----------------|

G|-----------------|-----------------|
D|-----------------|-----------------|
A|-9-9-9-9-9-9-9-9-|-9-9-9-9-9-9-9-9-|
E|-----------------|-----------------|


Bridge
G|------|---------|------|---------|------|---------|------|---------|------|---------|------|---------|
D|------|---------|------|---------|------|---------|------|---------|------|---------|------|---------|
A|------|-8--6--4-|------|-8--6--4-|------|-6--4--3-|------|---------|------|-8--6--4-|------|-8--6--4-|
E|--9---|---------|--4---|---------|--2---|---------|--2---|-6--8--9-|--6---|---------|--4---|---------|

G|-------------------|-------------------|-----------------|-------------------------|
D|-------------------|-------------------|-----------------|-------------------------|
A|-------------------|-------------------|-----------------|-------------------------|
E|-1h2-2-2-2-2-2-2-2-|-1h2-2-2-2-2-2-2-2-|-1h2-2-2-1h2-2-2/|-14-14-14-14-14-14-14-14-|


Chorus
G|-----------------|-----------------|-----------------|-----------------|
D|-----------------|-----------------|-----------------|-----------------|
A|-----------------|-9-9-9-9-9-9-9-9-|-----------------|-----------------|  x2
E|-9-9-9-9-9-9-9-9-|-----------------|-6-6-6-6-6-6-6-6-|-4-4-4-4-4-4-4-4-|


G|-----------------|-----------------|-----------------|-----------------|
D|-----------------|-----------------|-----------------|-----------------|
A|-4-4-4-4-4-4-4-4-|-----------------|-----------------|-----------------|
E|-----------------|-2-2-2-2-2-2-2-2-|-6-6-6-6-6-6-6-6-|-4-4-4-4-4-4-4-4-|

G|-----------------|-----------------|-------------------------|-------------------------|
D|-----------------|-----------------|-------------------------|-------------------------|
A|-4-4-4-4-4-4-4-4/|-9-9-9-9-9-9-9-9/|-13-13-13-13-13-13-13-13-|-11-11-11-11-11-11-11-11-|
E|-----------------|-----------------|-------------------------|-------------------------|


Interlude 2
G|------|------|------|------|
D|------|------|------|------|
A|------|--9---|--13--|--11--|  x2
E|--9---|------|------|------|


Final Chorus
G|-----------------|-----------------|-----------------|-----------------|
D|-----------------|-----------------|-----------------|-----------------|
A|-----------------|-9-9-9-9-9-9-9-9-|-----------------|-----------------|  x2
E|-9-9-9-9-9-9-9-9-|-----------------|-6-6-6-6-6-6-6-6-|-4-4-4-4-4-4-4-4-|


G|-----------------|-----------------|-----------------|-----------------|-------|
D|-----------------|-----------------|-----------------|-----------------|-6-----|
A|-4-4-4-4-4-4-4-4-|-----------------|-----------------|-----------------|---6---|
E|-----------------|-2-2-2-2-2-2-2-2-|-6-6-6-6-6-6-6-6-|-4-4-4-4-4-4-4-4-|-----4-|
comments
We did not receive enough feedback on this tab! Please rate:
print report bad tab
1 2 3 4 5
I want to post or [tab]
guest
You may want to rate the tab now too:
select rating
Please do not post tabs as comments. Select "correction" instead!