Oops, an error
Loading. Please wait.

Mr Brightside Bass Tab

version 5
4,969 views 1 this week
no commentswrite comment
1 2 3 4 5
please rate
add to favorites
launch autoscroll
font size
0
reset
guitar tuner
Tab Pro tools
  • play this tab
  • loop segment
  • change instrument
  • show fretboard
  • metronome
×
Best way to learn
"Mr Brightside"
Autoscroll
slow
fast
+/-
esc
set tempo
stop
Contributor
Difficulty
novice
Intro: "It started out with a kiss..."
G|----------------------------------------------------------------|
D|11-11-11-11-11-11-11-11-10-10-10-10-10-10-10-10-----------------|
A|------------------------------------------------9999999999999999|
E|----------------------------------------------------------------|
^this timing isnt different than the rest of the tab... i just didnt want to bunch up the 10s and 11s...

Verse 1:
G|--------------------------------|
D|--------------------------------|
A|--------------------------------|
E|99999999888888882222222222222222|

G|--------------------------------|
D|--------------------------------|
A|----------------9999999999999999|
E|9999999988888888----------------|

Pre-Chorus:
G|----------------------------------------------------------------|
D|----------------------------------------------------------------|
A|--------88866644--------88866644--------66644411--------11133344|
E|66666666--------44444444--------22222222--------22222222--------|

G|----------------------------------------------------------------|
D|----------------------------------------------------------------|
A|--------88866644--------88866644------------------------99999999|
E|66666666--------44444444--------122222221222222212221222--------|

Chorus Pt. 1:
G|--------------------------------|
D|--------------------------------| x2
A|--------99999999----------------|
E|99999999--------6666666644444444|

Chorus Pt. 2:
G|----------------------------------------------------------------|
D|----------------------------------------------------------------| x2
A|--------99999999/13-13-13-13-13-13-13-13-11-11-11-11-11-11-11-11|
E|99999999--------------------------------------------------------|

Bridge 1:
G|--------------------------------|
D|--------------------------------| x2
A|--------99999999----------------|
E|99999999--------6666666644444444|

Verse 2:
G|--------------------------------|
D|--------------------------------|
A|--------------------------------|
E|99999999888888882222222222222222|

G|--------------------------------|
D|--------------------------------|
A|----------------------------9/4-|
E|99999999888888882---------------|

G|--------------------------------|
D|--------------------------------|
A|--------------------------------|
E|99999999888888882222222222222222|

G|--------------------------------|
D|--------------------------------|
A|----------------9999999999999999|
E|9999999988888888----------------|

Pre-Chorus:
G|----------------------------------------------------------------|
D|----------------------------------------------------------------|
A|--------88866644--------88866644--------66644411--------11133344|
E|66666666--------44444444--------22222222--------22222222--------|

G|----------------------------------------------------------------|
D|----------------------------------------------------------------|
A|--------88866644--------88866644------------------------99999999|
E|66666666--------44444444--------122222221222222212221222--------|

Chorus Pt. 1:
G|--------------------------------|
D|--------------------------------| x2
A|--------99999999----------------|
E|99999999--------6666666644444444|

Chorus Pt. 2:
G|----------------------------------------------------------------|
D|----------------------------------------------------------------| x2
A|--------99999999/13-13-13-13-13-13-13-13-11-11-11-11-11-11-11-11|
E|99999999--------------------------------------------------------|

Bridge 2:
G|--------------------------------|
D|--------------------------------| x2
A|8~~~~~~~------------------------|
E|--------9~~~~~~~6~~~~~~~4~~~~~~~|

Outro:
G|---------------------------------------------------|
D|---------------------------------------------------|
A|--------99999999/13-13-13-13-13-13-13-13-11--------|
E|99999999------------------------------------11-4~~~|
comments
We did not receive enough feedback on this tab! Please rate:
print report bad tab
1 2 3 4 5
I want to post or [tab]
guest
You may want to rate the tab now too:
select rating
Please do not post tabs as comments. Select "correction" instead!