Oops, an error
Loading. Please wait.

Mr Brightside Bass Tab

version 6
3,494 views 1 this week
no commentswrite comment
1 2 3 4 5
worth learning
x 4
add to favorites
launch autoscroll
font size
0
reset
guitar tuner
Tab Pro tools
  • play this tab
  • loop segment
  • change instrument
  • show fretboard
  • metronome
×
Best way to learn
"Mr Brightside"
Autoscroll
slow
fast
+/-
esc
set tempo
stop
Difficulty
novice
Intro
G--------------------------------------------------------------|
D--------------------------------------------------------------|
A--4-----------3-----------------------------------------------|     X2
E---------------------------2-------------2--------------------|

Verse
G-----------------------------------------------------------------|
D-----------------------------------------------------------------|
A--4444444433333333-----------------------------------------------|
E-------------------2222222222222222------------------------------|

G-----------------------------------------------------------------|
D-----------------------------------------------------------------|
A--44444444333333339999999999999999-------------------------------|
E-----------------------------------------------------------------|

Prechorus
G-----------------------------------------------------------------------|
D-----------------------------------------------------------------------|
A------------11-11-11-99988----------88866644---------88866644----------|
E--66666666-----------------44444444----------22222222---------22222222-|

G-----------------------------------------------------------------------|
D-----------------------------------------------------------------------|
A-11133344-----------11-11-11-99988----------88866644-----------88866644|
E-----------66666666----------------44444444-----------22222222---------|

G-----------------------------------------------------------------------|
D-----------------------------------------------------------------------|
A-----------------------------------------------------------------------|
E--2222220---2222220--2222220--22222222---------------------------------|

Chorus

G---------------------------------------------------------------------|
D---------------------------------------------------------------------|
A--4444444499999999---------------------------------------------------| x6
E-------------------6666666644444444----------------------------------|

Verse
G------------------------------------------------------------------|
D------------------------------------------------------------------|
A--4444444433333333------------------4444444433333333--------------|
E-------------------2222222222222222------------------2------------|

G--------------------------------------------------------------------|
D--------------------------------------------------------------------|
A--4444444433333333------------------4444444433333333999999999999999-|
E-------------------2222222222222222---------------------------------|

Prechorus
G-----------------------------------------------------------------------|
D-----------------------------------------------------------------------|
A------------11-11-11-99988----------88866644---------88866644----------|
E--66666666-----------------44444444----------22222222---------22222222-|

G-----------------------------------------------------------------------|
D-----------------------------------------------------------------------|
A-11133344-----------11-11-11-99988----------88866644-----------88866644|
E-----------66666666----------------44444444-----------22222222---------|

G-----------------------------------------------------------------------|
D-----------------------------------------------------------------------|
A-----------------------------------------------------------------------|
E--2222220---2222220--2222220--22222222---------------------------------|


G-----------------------------------------------------------------------|
D-----------------------------------------------------------------------|
A--4----------9---------------------------------------------------------| x2
E--------------------------6-------------4------------------------------|

G-----------------------------------------------------------------------|
D-----------------------------------------------------------------------|
A--44444444499999999----------------------------------------------------| x2 
E--------------------6666666644444444-----------------------------------|

G-----------------------------------------------------------------------|
D--------------------8888888866666666-----------------------------------|
A--44444444499999999----------------------------------------------------| x2 
E-----------------------------------------------------------------------|
comments
print report bad tab
I want to post or [tab]
guest
You may want to rate the tab now too:
select rating
Please do not post tabs as comments. Select "correction" instead!