Oops, an error
Loading. Please wait.

Mr Brightside Bass Tab

version 7
4,509 views 3 this week
no commentswrite comment
1 2 3 4 5
please rate
add to favorites
launch autoscroll
font size
0
reset
guitar tuner
Tab Pro tools
  • play this tab
  • loop segment
  • change instrument
  • show fretboard
  • metronome
×
Best way to learn
"Mr Brightside"
Autoscroll
slow
fast
+/-
esc
set tempo
stop
Difficulty
novice
Mr Brightside

Intro/Verse (starts at "It started out with a kiss...")
G|------------------------------------|
D|------------------------------------|
A|------------------------------------| x2
E|-99999999-88888888-2222222222222222-|
continued
G|------------------------------------|
D|------------------------------------|
A|-------------------9999999999999999-|
E|-99999999-88888888------------------|

Pre-Chorus
G|-----------------------------------------------------------------|
D|----------3--1------------3--1------------1----------------------|
A|-11111111------4---------------4-------------4-3----------1--3-4-|
E|-----------------44444444--------22222222--------22222222--------|
continued
G|-------------------------------------------------------------------|
D|----------3--1------------3--1-------------------------------------|
A|---------------4---------------4--------------------------99999999-|
E|-11111111--------44444444--------222222221222222212222222----------|

Chorus
G|-------------------------------------|
D|----------44444444-------------------|
A|-44444444----------------------------| x6
E|-------------------66666666-44444444-|

G|------------------------------------|
D|------------------------------------|
A|------------------------------------| x2
E|-99999999-88888888-2----------------|

G|------------------------------------|
D|------------------------------------|
A|-------------------9999999999999999-|
E|-99999999-88888888------------------|
Pre-Chorus
G|-----------------------------------------------------------------|
D|----------3--1------------3--1------------1----------------------|
A|-11111111------4---------------4-------------4-3----------1--3-4-|
E|-----------------44444444--------22222222--------22222222--------|
continued
G|-------------------------------------------------------------------|
D|----------3--1------------3--1-------------------------------------|
A|---------------4---------------4--------------------------99999999-|
E|-11111111--------44444444--------222222221222222212222222----------|

Chorus
G|-------------------------------------|
D|----------44444444------------------4~|
A|-44444444----------------------------| x4
E|-------------------66666666-44444444-|

Bridge(drum roll) 
G|-------------|
D|-------8~\6~-|
A|-4~/9~-------|
E|-------------|

Chorus
G|-------------------------------------|
D|----------44444444-------------------|
A|-44444444----------------------------| x3
E|-------------------66666666-44444444-|

G|-------------------------------------|
D|-------------------88888888-6--------|
A|-44444444-99999999------------6------|
E|--------------------------------4~~~-|



comments
We did not receive enough feedback on this tab! Please rate:
print report bad tab
1 2 3 4 5
I want to post or [tab]
guest
You may want to rate the tab now too:
select rating
Please do not post tabs as comments. Select "correction" instead!