Oops, an error
Loading. Please wait.
56,211 views 1,776 this week
9 commentsread comments
1 2 3 4 5
x 13
add to favorites
×
Save as Personal and add changes to this tab that will be seen only by you. Learn more ›
×
You can save this tab as Personal to edit and correct it or add notes. All changes will be seen only by you. Learn more »
launch autoscroll
font size
0
reset
how to read this tab
guitar tuner
backing track
0:00
0:00
edit
Autoscroll
slow
fast
+/-
esc
set tempo
stop
Author
I put together all the tabs that had wrong parts in them to make one that had all the right ones



Intro, and 1st Verse

I-------------------------------------------------------------------------|
I-----------16----------------16---------------16---------------16--------|
I-------18----18--18------18----18--18-----18----18--18-----18----18---18-|
I-----15--15----15------15--15----15-----15---15---15-----15--15----15----|
I---16----------------15--------------------------------------------------|
I--------------------------------------14----------------14---------------|



Pre-Chorus

 This starts when he says chest
                              
||----------0-------|---------0-------|---------0-------|---------0-------|
||------------5-----|-----------5-----|-----------5-----|-----------5-----|
||------7-------7---|-----7-------7---|-----7-------7---|-----7-------7---|
||----0---0-------0-|---0---0-------0-|---0---0-------0-|---0---0-------0-|
||------------------|-----------------|-----------------|-----------------|
||--7---------------|-7---------------|-5---------------|-5---------------|


Chorus (1st part)

Play Twice

 E|-----------------------------------------------------------------------|
 B|-----------------------------------------------------------------------|
 G|--11--11--11--11----12--12--12--12---14--14--14--14---9---7---6---7----|
 D|----12--12--12--12---12--12--12--12---12--12--12---0----7---7---7---7--|
 A|-----------------------------------------------------------------------|
 E|-----------------------------------------------------------------------|


Chorus (2nd part)

Play twice

   price I pay
eb|-------------------------------------------------------------------|
Bb|-10----10----10--12----12----12--15----15----15--------------------|
Gb|---11----11----0---12----12----0---14----14----0---9---7---6---7---|
Db|-----12----12--------12----12--------12----12--------7---7---7---7-|
Ab|-------------------------------------------------------------------|
Eb|-------------------------------------------------------------------|

Play all that again until you come to the interlude which starts at 3:01

Play it twice
 E|----------------------------------------------------------------|
 B|----------------------------------------------------------------|
 G|--11-11-12-14----12-14-11-12---11-11-12-11-0---9---7---6--------|
 D|----12-12-12-12---12-12-12-12---12-12-12---0-----7---7---7------|
 A|----------------------------------------------------------------|
 E|----------------------------------------------------------------|

OUTRO   3:14
PART 1 
Play 3 times
   I never................
 E|--------------------------------------------------------------|
 B|--------------------------------------------------------------|
 G|--11-11-11-11----12-12-12-12---14-14-14-14---9---7---6---7----|
 D|----12-12-12-12---12-12-12-12---12-12-12--0----7---7---7---7--|
 A|--------------------------------------------------------------|
 E|--------------------------------------------------------------|

OUTRO                               
PART 2  Play once.                           
eb|-------------------------------------------------------------------|
Bb|---------------------------------------------------7---5-----------|
Gb|-11-11-11-11----12-12-12-12---14-14-14-14----9-----7---6-----------|
Db|---12-12-12-12---12-12-12-12---12-12-12--0---7--7--7---7-----------|
Ab|---------------------------------------------------0---0-----------|
Eb|-------------------------------------------------------------------|


            
            
Suggest correction
Creating personal tab
Creating personal tab
You can edit any tab online and save it as your Personal.

You can edit, replace or remove any tab part or add personal notes – all changes will be seen only by you.

Personal tabs can be accessed anytime from any device, even offline.
Learn more »
comments
print report bad tab
9 comments total. Showing first comments.
0 reply
TBSrules26 50 Nov 10, 2006 02:29 PM

the best tab ever, haha

0 reply
ls311 100 Mar 26, 2007 06:14 PM

im giving you 5 stars, you really nailed the pre-chorus.

0 reply
To The End 271 Apr 10, 2007 01:11 AM

very good averall. but just one xlight mistake in the pre-chorus, it should be this

||----------0-------|---------0-------|---------0-------|---------0-------|
||------------5-----|-----------5-----|-----------5-----|-----------5-----|
||------7-------7---|-----7-------7---|-----7-------7---|-----7-------7---|
||----0---0-------0-|---0---0-------0-|---0---0-------0-|---0---0-------0-|
||------------------|-----------------|-----------------|-----------------|
||--7---------------|-7---------------|-5---------------|-5---------------|

||-------0-------|----------0------|-----------0-------|---------0-------|
||---------5-----|------------5----|-------------5-----|-----------5-----|
||---7-------7---|------7-------7--|-----7---------7---|-----7-------7---|
||-----0-------0-|----0---0--------|---0---0---------0-|---0---0-------0-|x2
||---------------|-----------------|-------------------|-----------------|
||-3-------------|-3---------------|-3-----------------|-3---------------|

guest
You may want to rate the tab now too:
select rating
Wanna post a correction for this tab? Suggest correction