Oops, an error
Loading. Please wait.

My List Bass Tab

version 1
version 1

Whole song

Interactive

1,358 views 6 this week
no commentswrite comment
1 2 3 4 5
please rate
add to favorites
launch autoscroll
font size
0
reset
guitar tuner
Tab Pro tools
  • play this tab
  • loop segment
  • change instrument
  • show fretboard
  • metronome
×
Best way to learn
"My List"
Autoscroll
slow
fast
+/-
esc
set tempo
stop
Contributor
Difficulty
novice
My List- Killers- Sam's Town
Tuning: Standard

Intro/Verse/Outro
-----------------------|
-----------------------|
-----------------------|                 Play until 1:59
---8--8--8--8----------|

Play at 1:59
-----
-----
-----
--5--

Play this fill at 2:06
-----------------------|
-----------------------|
-----------------------|
---0h1--2/8------------|

Chorus
------------------------------|
------------------------------|
--------7-7-7-7-8-8-8-8----57-|
-8-8-8-8---------------8-8----|

------------------------------|                      play till 3:04
---------------7-797-7--------|
--8-8108-7-787----------------|
------------------------15/8--|

Chorus part 2
---------------------------------------|
---------------------------------------|
---------7-7-7-7-8-8-8-8--10-10-10-10--|
-8-8-8-8-------------------------------|

---------------------------------------|
---------------------------------------|
---------7-7-7-7-8-8-8-8---------------|
-8-8-8-8-----------------10-10-10-10---|

---------------------------------------|
---------------------------------------|
----------7-7-7-7---------7-7-7-7------|
-8-8-8-8----------8-8-8-8--------------|

---------------------------------------|
---------------------------------------|
----------7-7-7-7--------3-------------|
--8-8-8-8----------0-2-4---------------|

Play the Intro part until 3:43

at 3:43 play
---------|
---------|
-------3-|
-0-2-4---|

Then play the intro till the end.

There you go!
comments
We did not receive enough feedback on this tab! Please rate:
print report bad tab
1 2 3 4 5
I want to post or [tab]
guest
You may want to rate the tab now too:
select rating
Please do not post tabs as comments. Select "correction" instead!