Oops, an error
Loading. Please wait.

Neon Tiger Bass Tab

version 1
version 1

Whole song

Interactive

2,732 views 3 this week
no commentswrite comment
1 2 3 4 5
accurate
x 3
add to favorites
launch autoscroll
font size
0
reset
guitar tuner
Tab Pro tools
  • play this tab
  • loop segment
  • change instrument
  • show fretboard
  • metronome
×
Best way to learn
"Neon Tiger"
Autoscroll
slow
fast
+/-
esc
set tempo
stop
Contributor
Difficulty
novice
This was tabbed from the Highline Ballroom gig, so it may not be entirely accurate when 
recorded version comes out.

Verse
G|------------------------------------------------------------|
D|---------124---------124--2-2---2-2-2444444-----------------|
A|2-2--2-2-----2-2--2-2--------2--------------2-2--2-2-2222222|
E|---2------------2------------------------------2------------|

Chorus
G|-----------------------------------------------------------------|
D|444466662222----4444------------222266664444444422224444---------|
A|--------------------2222--------------------------------2~-------|
E|------------2222--------44444444---------------------------------|

Break
G|444444444444444-444444444444444-------------------------------------|
D|--------------------------------------------------------------------|
A|---------------2---------------2777777777777777777777222222222222222|
E|--------------------------------------------------------------------|

G|-------------------------------------------------------------------|
D|444444422222222----------------------------------------------------|
A|---------------2222222222222222222222222222222(Until-chorus-starts)|
E|-------------------------------------------------------------------|

The Last Chorus has a slightly different ending to the others, but I havent tabbed it 
it is really easy to work out.
Enjoy!!!!!!!!
comments
We did not receive enough feedback on this tab! Please rate:
print report bad tab
1 2 3 4 5
I want to post or [tab]
guest
You may want to rate the tab now too:
select rating
Please do not post tabs as comments. Select "correction" instead!