Oops, an error
Loading. Please wait.

Neon Tiger Bass Tab

version 2
version 2

Whole song

Interactive

1,563 views 1 this week
2 commentsread comments
1 2 3 4 5
please rate
add to favorites
launch autoscroll
font size
0
reset
guitar tuner
Tab Pro tools
  • play this tab
  • loop segment
  • change instrument
  • show fretboard
  • metronome
×
Best way to learn
"Neon Tiger"
Autoscroll
slow
fast
+/-
esc
set tempo
stop
Contributor
Track number 8 from Day and Age.
Tuning: standard

I know this is 100%. And if it isn't is sounds perfect.

Intro:
------------------------|
-------66-44-124--------|
-44-22------------------|
------------------------|

Verse
-----------------------------------------------|
---------------124-----------------------------|
--2--2-----2-2-----2--2-----2-2-/1414----------|
---------2----------------2--------------------|

-----------------------------------------------|
--2--2-----2-2--124----------------------------|
---------2-----------2--2-----2-2--1414\-------|
----------------------------2------------------|

Chorus
----------------------------------------------------------------------|
-4444-6666-2222------4444------66666666-2222-6666-44444444-2222-4444--|
--------------------------2222----------------------------------------|
----------------2222--------------------------------------------------|

Pre-Chorus
------------------------|
-----------------124----|
-2--2-/1414-2--2--------|
------------------------|

Repeat verse x1

Chorus 2 (only varies from the first at the end)
----------------------------------------------------------------------------|
--4444-6666-2222------4444------66666666-2222-6666-44444444-2222-4444-------|
---------------------------2222---------------------------------------4444--|
----------------2222--------------------------------------------------------|

Bridge
-4-4-4-4-4-4-4-4-4-4-4-4-4-4-4---4-4-4-4-4-4-4-4-4-4-4-4-4-4-4---|
-----------------------------------------------------------------|
-------------------------------2-------------------------------2-|
-----------------------------------------------------------------|

--------------------------------------------------------------------------|
-2-2-2-2-2-2-2-2-2-2-2-2-2-2-2-2------------------------------------------|
---------------------------------2-2-2-2-2-2-2-2/-14-14-14-14-14-14-14-14-|
--------------------------------------------------------------------------|

-----------------------------------------------------------------|
-44444444-22222222-----------------------------------------------|
------------------222222222222222222222222/1414141414141414------|
-----------------------------------------------------------------|

Chorus 3/ outro
---------------------------------------------------------------------|
-4444-6666-2222------4444------66666666-2222-6666-44444444-2222------|
--------------------------2222----------------------------------4444-|
----------------2222-------------------------------------------------|

---------------------------------------------------------------------------|
-11111111 -2222------6666------2-------------------------------------------|
---------------4444------4444------4----2----1------------------1---2------|
--------------------------------------------------4----2----4--------------|


Fade out with 2
-----------------|
-----------------|
-2-2-2-2-2-2-2---|
-----------------|

THAT'S IT. ENJOY
PLEASE LEAVE ANY COMMENTS OR CORRECTIONS, AND RATE IT.
comments
We did not receive enough feedback on this tab! Please rate:
print report bad tab
1 2 3 4 5
2 comments total.
0 reply
CarlAreBassists wrote on December 8 2008, 06:01 pm

it isnt 100% correct you ****ing moron. why be so confident that its correct when it simply isnt?
it doesnt sound perfect at all, sort out your ears.

0 reply
guitarboy48 wrote on December 9 2008, 04:15 pm

Yell me what parts are incorrect. If I did so bad tell me what's wrong.

I want to post or [tab]
guest
You may want to rate the tab now too:
select rating
Please do not post tabs as comments. Select "correction" instead!