Oops, an error
Loading. Please wait.

On Top Bass Tab

version 2
version 2

Whole song

Interactive

4,626 views 1 this week
1 commentread comment
1 2 3 4 5
excellent!
x 5
add to favorites
launch autoscroll
font size
0
reset
guitar tuner
Tab Pro tools
  • play this tab
  • loop segment
  • change instrument
  • show fretboard
  • metronome
×
Best way to learn
"On Top"
Autoscroll
slow
fast
+/-
esc
set tempo
stop
Contributor
Difficulty
novice
Here's the whole song in order. I think most of it is right. Might be a few bits
not completely correct, leave them in a comment if you want! Hope it works for
you, please rate it well if you like it :)

Standard Tuning
\ = slide down
/ = slide up

Verse #1 / Intro
G:---------------------------------------------------|
D:---------------------------------------------------|
A:---------------------------------------------------|
E:--9-9-9-9-9-\-/-9-9-9-----7-7-7-7-\-/-2-2-2-0-2-0--| 

G:---------------------------------------------------|
D:---------------------------------------------------|
A:--------------------------------------9-9-9-7-9-7--|
E:--9-9-9-9-9-\-/-9-9-9-----7-7-7-7-\-/--------------|  x2

Alt Verse #1

G:---------------------------------------------------|
D:---------------------------------------------------|
A:---------------------------------------------------|
E:--9-9-9-9-9-\-/-9-9-9-----7-7-7-7-\-/-2-2-2-0-2-0--| 

G:---------------------------------------------------|
D:---------------------------------------------------|
A:---------------------------------------------------|
E:--9-9-9-9-9-\-/-9-9-9-----7-7-7-7-\-/-2222222------|

Chorus
G:---------------------------------------------|
D:---------------------------------------------|
A:---99999999-----------77777776---------------|
E:------------77777777-----------99999999------| x2


Verse #2
G:---------------------------------------------------|
D:---------------------------------------------------|
A:---------------------------------------------------|
E:--9-9-9-9-9-/-\-9-9-9-----7-7-7-7-/-\-2-2-2-0-2-0--| 

"The day is breaking, we're still here..."

G:---------------------------------------------------|
D:---------------------------------------------------|
A:---------------------------------------------------|
E:--9-9-9-9-9-/-\-9-9-9-----7-7-7-7-/-\-2-2-2-0-2-0--| 

G:---------------------------------------------------|
D:---------------------------------------------------|
A:--------------------------------------9-9-9-7-9-7--|
E:--9-9-9-9-9-/-\-9-9-9-----7-7-7-7-/-\--------------|  

Alt Verse #2  "That I've been down..."

G:---------------------------------------------------|
D:---------------------------------------------------|
A:---------------------------------------------------|
E:--9-9-9-9-9-\-/-9-9-9-----7-7-7-7-\-/-2-2-2-0-2-0--| 

G:---------------------------------------------------|
D:---------------------------------------------------|
A:---------------------------------------------------|
E:--9-9-9-9-9-\-/-9-9-9-----77777777-\-2222222-------|

Chorus "...you In the back, uh huh"
G:---------------------------------------------|
D:---------------------------------------------|
A:---99999999-----------77777776---------------|
E:------------77777777-----------99999999------| x4

Break #1 "And we don't mean to satisfy..."
G:-----------------------------------------------|
D:-----------------------------------------------|
A:--------------------77777777-999999-1212121212-|
E:---1010101010101010----------------------------|

G:-----------------------------------------------|
D:-----------------------------------------------|
A:--------------------77777777-999999-55555457---|
E:---1010101010101010----------------------------|

G:-----------------------------------------------|
D:-----------------------------------------------|
A:--------------------77777777-999999/1212121212-|
E:---1010101010101010----------------------------|

Break #2 "it's just a cigarette in the mouth..."
G:--------------------------------------|
D:--------------------------------------|
A:---------777777777----------777777777-|
E:-77777777----------777777777----------|

G:--------------------------------------|
D:--------------------------------------|
A:---------777777777-9999999999999999---|
E:-77777777-----------------------------|

Gap (Synth Solo)

G:---------------------------------------------------|
D:---------------------------------------------------|
A:---------------------------------------------------|
E:--9-9-9-9-9-\-/-9-9-9-----7-7-7-7-\-/-2-2-2-0-2-0--| 

G:---------------------------------------------------|
D:---------------------------------------------------|
A:---------------------------------------------------|
E:--9-9-9-9-9-\-/-9-9-9-----77777777-\-2222222-------|

Solo (guitar)

G:---------------------------------------------|
D:---------------------------------------------|
A:---99999999-----------77777776---------------|
E:------------77777777-----------99999999------| 

G:---------------------------------------------|
D:---------------------------------------------|
A:---111111111111111111-----------77777776-----| (that's 8 11s not 16 1s)
E:----------------------77777777----------9~--\| 

Break #3
G:-----------------------------------------------|
D:-----------------------------------------------|
A:--------------------77777777-999999-1212121212-|
E:---1010101010101010----------------------------|

G:-----------------------------------------------|
D:-----------------------------------------------|
A:--------------------77777777-999999-55555457---|
E:---1010101010101010----------------------------|

G:-----------------------------------------------|
D:-----------------------------------------------|
A:--------------------77777777-999999/1212121212-|
E:---1010101010101010----------------------------|

Break #2
G:--------------------------------------|
D:--------------------------------------|
A:---------777777777----------777777777-|
E:-77777777----------777777777----------|

G:--------------------------------------|
D:----------------------------------/16-|
A:---------777777777-9~-----------------|
E:-77777777-----------------------------|

comments
print report bad tab
1 comment total.
0 reply
danieljcf wrote on November 4 2008, 06:38 pm

The begining is like this:

G:---------------------------------------------------|
D:---------------------------------------------------|
A:---------------------------------------------------|
E:----9-9-9-9-\-/-9-9-9-----7-7-7-7-\-/-2-2-2-0-2-0--|

G:---------------------------------------------------|
D:---------------------------------------------------|
A:---------------------------------------------------|
E:----9-9-9-9-\-/-9-9-9-----7-7-7-7-\-/-2-2-2-0-2-0--|

G:---------------------------------------------------|
D:---------------------------------------------------|
A:---------------------------------------------------|
E:----9-9-9-9-\-/-9-9-9-----7-7-7-7-\-/-2-2-2-0-2-0--|

G:---------------------------------------------------|
D:---------------------------------------------------|
A:--------------------------------------9-9-9-7-9-7--|
E:----9-9-9-9-\-/-9-9-9-----7-7-7-7-\-/--------------|

This last verse only at the end of the intro ;) the rest sounds good.

I want to post or [tab]
guest
You may want to rate the tab now too:
select rating
Please do not post tabs as comments. Select "correction" instead!