Oops, an error
Loading. Please wait.

Read My Mind Bass Tab

version 1
version 1

Whole song

Interactive

31,268 views 24 this week
11 commentsread comments
1 2 3 4 5
accurate
x 32
add to favorites
launch autoscroll
font size
0
reset
guitar tuner
Tab Pro tools
  • play this tab
  • loop segment
  • change instrument
  • show fretboard
  • metronome
×
Best way to learn
"Read My Mind"
Autoscroll
slow
fast
+/-
esc
set tempo
stop
Contributor
Difficulty
intermediate
READ MY MIND
ARTIST: THE KILLERS
ALBUM: SAM’S TOWN

INTRO (KEYBOARD AND DRUMS)

BASS STARTS AT 0:29

G|-------------------------------------|
D|-------------------------------------|
A|444444441111-------------------------|	X2
E|------------11114444444444444444-----|

G|-------------------------------------|
D|-------------------------------------|
A|444444441111-------------------------|	X4
E|------------11114444444444444444-----|

‘The good old days, the honest man…’
G|-------------------------------------|
D|-------------------------------------|
A|999999994444444----------------------|	X2
E|---------------444444444444444-------|

‘…I donn’t mind…’
G|------------------------------------------------|
D|------------------------------------------------|
A|999999994444444----0000111188889999999999999999-|	
E|---------------4444-----------------------------|

G|------------------------------------------------|
D|------------------------------------------------|
A|11-11-11-11-11-11-11-11-11-11-11-11-11-11-11-11-|	
E|------------------------------------------------|

‘It’s funny how you just break down….’
G|-------------------------------------|
D|-------------------------------------|
A|444444441111-------------------------|	X4
E|------------11114444444444444444-----|

‘The teenage queen, the loaded gun…
G|-------------------------------------|
D|-------------------------------------|
A|999999994444444----------------------|	X2
E|---------------444444444444444-------|

‘…I don’t mind…’
G|------------------------------------------------|
D|------------------------------------------------|
A|999999994444444----0000111188889999999999999999-|	
E|---------------4444-----------------------------|

G|------------------------------------------------|
D|------------------------------------------------|
A|11-11-11-11-11-11-11-11-11-11-11-11-11-11-11-11-|	
E|------------------------------------------------|

BRIDGE

‘…when you read my mind’
G|----------------------------------------|
D|----------------------------------------|
A|11111111---------------4444333311111111-|	
E|--------444444442222222-----------------|

G|--------------------------------------------------|
D|--------------------------------------------------|
A|4444444422222222444444444444444444444444/16 (X16)-|	
E|--------------------------------------------------|

‘Slippin’ in my faith until I fall…’
G|-------------------------------------|
D|-------------------------------------|
A|999999994444444----------------------|	X2
E|---------------444444444444444-------|

G|------------------------------------------------|
D|------------------------------------------------|
A|999999994444444----0000111188889999999999999999-|	
E|---------------4444-----------------------------|

‘I don’t mind if you don’t mind…’
G|----------------------------------------|
D|----------------------------------------|
A|11111111---------------4444333311111111-|	
E|--------444444442222222-----------------|

G|--------------------------------------------------|
D|--------------------------------------------------|
A|444444442222222222222222--------------------------|	
E|--------------------------------------------------|

‘oooooooo’
G|-------------------------------------|
D|-------------------------------------|
A|4-------1----------------------------|
E|------------1---4--------------------|

‘The stars are blazin like rebel diamonds…’
G|-------------------------------------|
D|-------------------------------------|
A|4-------1----------------------------|
E|------------1---4--------------------|

‘Can you read my mind…’
G|-------------------------------------|
D|-------------------------------------|
A|444444441111---------------------4~ -|	X2
E|------------11114444444444444444-----|

comments
print report bad tab
11 comments total. Showing first comments.
0 reply
cassidinho wrote on March 7 2007, 12:11 pm

very inaccurate

0 reply
chocolateroy1 wrote on March 8 2007, 05:09 am

why ?

0 reply
guyisasexybeast wrote on May 10 2007, 09:57 am

Awesome, can't fault it. Great tab!

I want to post or [tab]
guest
You may want to rate the tab now too:
select rating
Please do not post tabs as comments. Select "correction" instead!