Oops, an error
Loading. Please wait.

Read My Mind tab

version 2
version 2
17,076 views 21 this week
2 commentsread comments
1 2 3 4 5
x 5
add to favorites
×
Save as Personal and add changes to this tab that will be seen only by you. Learn more ›
×
You can save this tab as Personal to edit and correct it or add notes. All changes will be seen only by you. Learn more »
launch autoscroll
font size
0
reset
how to read this tab
guitar tuner
edit
Autoscroll
slow
fast
+/-
esc
set tempo
stop
Author
Difficulty
into:

Db Db/Bb   F  Asus4 A

Verse riff:

e|--------------------------------------------|
B|--------------------------------------------|
G|--------------------------------------------|
D|-3-4-3---3-4-3-3-4-3---3-4-3-3-4-3---3-4-1--|
A|-------4-------------4-------------4----- --|
E|--------------------------------------------|

Chorus: Chords

Gb  Db  Ab x2  Gb  Db  Ab A  Bb  F  Gb  Ab

Chorus Riff:

e|99999999--99999999--88888888--99999999------|
B|77777777--99999999--99999999--99999999------|     x2 then
G|--------------------------------------------|
D|--------------------------------------------|
A|--------------------------------------------|
E|--------------------------------------------|

e|--------------------------------------------|
B|--------------------------------------------|
G|-15---13---11----13---11----10--------------|
D|--------------------------------------------|
A|-13---11----9----11---9-----8---------------|
E|--------------------------------------------|

Solo:

e|-99999999-----------------------------------------------------------|
B|----------99999999--77-99--67--4-6-4-6-6^-4-6-6^---4/2--44-2-1-2-4--|
G|--------------------------------------------------------------------|
D|--------------------------------------------------------------------|
A|--------------------------------------------------------------------|
E|--------------------------------------------------------------------|

e|-4444-6666-8888-9999-11-11-11-11-13-13-13-13^----|
B|-------------------------------------------------|
G|-------------------------------------------------|
D|-------------------------------------------------|
A|-------------------------------------------------|
E|-------------------------------------------------|

thatas it and you dont have to tune down

            
            
Suggest correction
Creating personal tab
Creating personal tab
You can edit any tab online and save it as your Personal.

You can edit, replace or remove any tab part or add personal notes – all changes will be seen only by you.

Personal tabs can be accessed anytime from any device, even offline.
Learn more »
comments
print report bad tab
2 comments total.
0 reply
Keenan-91 82 Aug 05, 2007 02:14 AM

sounds okay to me, not sure about this bit though.

--------------
--------------
--------------
--3--4--3-----
-----------4--
-------------- and so on....

still pretty good, 4 ****

+1 reply
Kuldy19 90 Feb 02, 2008 05:41 PM

it is a bit wrong on that part it should be like this

G------------6-----------
D---3--4--3----3--4--3--- X3
and on the fourth time you slide to 1 on D string
A------------------------
E-------------------------

and so
on

guest
You may want to rate the tab now too:
select rating
Wanna post a correction for this tab? Suggest correction