Oops, an error
Loading. Please wait.

Runaways Bass Tab

version 1
version 1

Whole song

Interactive

6,570 views 3 this week
3 commentsread comments
1 2 3 4 5
excellent!
x 7
add to favorites
launch autoscroll
font size
0
reset
guitar tuner
Tab Pro tools
  • play this tab
  • loop segment
  • change instrument
  • show fretboard
  • metronome
×
Best way to learn
"Runaways"
Autoscroll
slow
fast
+/-
esc
set tempo
stop
Contributor
Tuning
D# G# C# F# A# D#
Artist: The Killers
Album: Battle Born
Track: Runaways
Tuning: Half step down (D#G#C#F#)

Updated 19/09/12

Intro - no bass

Verse 1 - no bass until “...and held my hand”)
F#|--------------------------------|--------------------------------|
C#|--------------------------------|--------------------------------| 
G#|--------------------------------|-7------------------------------| 
D#|-3---------------7--------------|-----------------5--------------|

F#|--------------------------------|--------------------------------|
C#|--------------------------------|--------------------------------| 
G#|--------------------------------|--------------------------------| 
D#|-3---------------7--------------|-5-555-555-55555-5-555-555-55555|

F#|--------------------------------|
C#|--------------------------------| 
G#|--------------------------------| 
D#|-3-333-333-33333-3-333-333-33333|

Pre-chorus 1
F#|--------------------------------|--------------------------------|
C#|--------------------------------|--------------------------------| 
G#|--------------------------------|-------4-4-4-5-5----------------| 
D#|-5-5-5-7-7-7-7-7-3-3-3-2-2-2-2-2|-7-7-7-----------3-3-3-3-3-3-3-3|

F#|--------------------------------|
C#|--------------------------------| 
G#|--------------------------------| 
D#|-5------7--------3--------------|

Verse 2
F#|--------------------------------|--------------------------------|
C#|--------------------------------|--------------------------------| 
G#|--------------------------------|--------/5-5-5-5---------------4| 
D#|-5------7--------3--------------|-3---------------5---------5-7--|

F#|--------------------------------|--------------------------------|
C#|--------------------------------|--------------------------------| 
G#|-5----7-------------------------|--------/5-5-5-5----------------| 
D#|--------5----7---3-----3---3----|-3-3-3-3---------5-5-5-5-5-5-5-5|

F#|--------------------------------|--------------------------------|
C#|--------------------------------|--------------------------------|
G#|--------------------------------|-7-7-7-7-7-7-7-7----------------| 
D#|-3-3-3-3-3-3-3-3-7-7-7-7-7-7-7-7|-----------------5-5-5-5-5-5-5-5|

F#|--------------------------------|--------------------------------|
C#|--------------------------------|--------------------------------| 
G#|--------------------------------|--------------------------------| 
D#|-3-3-3-3-3-3-3-3-7-7-7-7-7-7-7-7|-5-555-555-55555-5-555-555-55555|

F#|--------------------------------|
C#|--------------------------------| 
G#|--------------------------------| 
D#|-3-333-333-33333-3-333-333-33333|

Pre-chorus 2
F#|--------------------------------|--------------------------------|
C#|--------------------------------|--------------------------------| 
G#|--------------------------------|-------4-4-4-5-5----------------| 
D#|-5-5-5-7-7-7-7-7-3-3-3-2-2-2-2-2|-7-7-7-----------3-3-3-3-3-3-3-3|

F#|--------------------------------|
C#|--------------------------------| 
G#|--------------------------------| 
D#|-5-5-5-5-5-5-5-5-5-5-5-5-/17--17|

Chorus 1
F#|--------------------------------|--------------------------------|
C#|-----------------------5-----5--|--------------------------------| 
G#|-5------------------------------|---------5---------------------4| 
D#|---------5-------3---3-----3----|-3---------------5---------5-7--|

F#|--------------------------------|--------------------------------|
C#|------------------------5----5--|--------------------------------| 
G#|-5----7-------------------------|---------5----------------------| 
D#|--------5----7---3----3----3----|-3---------------5--------------|

Bridge
F#|--------------------------------|--------------------------------|
C#|--------------------------------|--------------------------------| 
G#|-----------------------------4-5|--------------------------------| 
D#|-2-2-2-2-2-2-2-2-7-7-7-7-7-7----|-3-3-3-3-3-3-3-3-3-3-3-3-3-3-3-3|

F#|--------------------------------|--------------------------------|
C#|--------------------------------|--------------------------------| 
G#|-5-5-5-5-5-5-5-5----------------|--------------------------------| 
D#|-----------------7-7-7-7-7-7-7-7|-5-5-5-5-5-5-5-5-3--------------|

Verse 3
F#|--------------------------------|--------------------------------|
C#|--------------------------------|--------------------------------| 
G#|-5------------------------------|---------5---------------------4| 
D#|---------5-------3--------------|-3---------------5---------5-7--|

F#|--------------------------------|--------------------------------|
C#|------------------------5----5--|--------------------------------| 
G#|-5----7-------------------------|---------5----------------------| 
D#|--------5----7---3----3----3----|-3---------------5-5-5-5-5-5-5-5|

F#|--------------------------------|--------------------------------|
C#|--------------------------------|--------------------------------| 
G#|--------------------------------|--------------------------------| 
D#|-3-3-3-3-3-3-3-3-3-3-3-2-3-2-3-5|-5-555-555-55555-5-555-555-55555|

F#|--------------------------------|
C#|--------------------------------| 
G#|--------------------------------| 
D#|-3-333-333-33333-3-333-333-33333|

Pre-chorus 3
F#|--------------------------------|--------------------------------|
C#|--------------------------------|--------------------------------| 
G#|--------------------------------|--------------------------------|
D#|-5-5-5-7-7-7-7-7-3-3-3-2-2-2-2-2|-5-5-5-7-7-7-7-7-3-3-3-2-2-2-2-2|

F#|--------------------------------|--------------------------------|
C#|--------------------------------|--------------------------------| 
G#|--------------------------------|--------------------------------| 
D#|-5-5-5-5-5-5-5-5-5-5-5-5-5-5-5-5|-5-5-5-5-5-5-5-5-5-5-5-/-17--17-|

Chorus 2
F#|--------------------------------|--------------------------------|
C#|-----------------------5-----5--|--------------------------------| 
G#|-5------------------------------|---------5---------------------4| 
D#|---------5-------3---3-----3----|-3---------------5---------5-7--|

F#|--------------------------------|--------------------------------|
C#|------------------------5----5--|--------------------------------| 
G#|-5----7-------------------------|---------5---------------------4| 
D#|--------5----7---3----3----3----|-3---------------5---------5-7--|

F#|--------------------------------|--------------------------------|
C#|-----------------5-5-5-5-5-4-5-5|-5-5-5-4-4-4--------------------| 
G#|-5-5-5-7-7-7-7-7----------------|-------------7-7---------------4| 
D#|--------------------------------|-----------------5-5-5-5-5-5-7--|

F#|--------------------------------|--------------------------------|
C#|-----------------5-5-5-5-5-4-5-5|-5-5-5-4-4-4--------------------| 
G#|-5-5-5-7-7-7-7-7----------------|-------------7-7----------------| 
D#|--------------------------------|-----------------5-5-5-5-5-5-5-5|

F#|--------------------------------|
C#|--------------------------------| 
G#|--------------------------------| 
D#|-5------7--------3--------------|
comments
print report bad tab
3 comments total.
0 reply
Mithriddle wrote on September 10 2012, 07:27 pm

Sounds pretty accurate mate, great job :)
I prefer standard tuning when possible, and this is one of those cases. Then again, each to their own.
Once again, great job!

0 reply
Bassprogman wrote on December 12 2012, 06:21 pm

This is great

0 reply
Bassprogman wrote on January 26 2013, 05:36 pm

For standard tuning subtract a one from every number

I want to post or [tab]
guest
You may want to rate the tab now too:
select rating
Please do not post tabs as comments. Select "correction" instead!