Oops, an error
Loading. Please wait.

Sams Town Tab

version 1
version 1

Intro

Whole song

Interactive

11,771 views 3 this week
7 commentsread comments
1 2 3 4 5
worth learning
x 7
add to favorites
launch autoscroll
font size
0
reset
how to read this tab
guitar tuner
Tab Pro tools
  • play this tab
  • loop segment
  • change instrument
  • show fretboard
  • metronome
Autoscroll
slow
fast
+/-
esc
set tempo
stop
Contributor
Difficulty
novice
-------------------------------------------------------------------------------
                             Sam's Town-The Killers
-------------------------------------------------------------------------------
Tabbed by:Cudman

Tuning: All Flat

 Have You Ever Seen The Light...

e|----------------13-----------------------------------------------------------|
B|-------13--15-------15---13----15--------------------------------------------|
G|---15------------------------------------------------------------------------|
D|-----------------------------------------------------------------------------|
A|-----------------------------------------------------------------------------|
E|-----------------------------------------------------------------------------|

e|---------------------------------------------------------------------------|
B|-----15b16---15--13--------------------------------------------------------|
G|----------------------15---------------------------------------------------|
D|--------------------------12-----------------------------------------------|
A|---------------------------------------------------------------------------|
E|---------------------------------------------------------------------------|

e|----------------13-----------------------------------------------------------|
B|-------13--15-------15---13----15--------------------------------------------|
G|---15------------------------------------------------------------------------|
D|-----------------------------------------------------------------------------|
A|-----------------------------------------------------------------------------|
E|-----------------------------------------------------------------------------|

e|---------------------------------------------------------------------------|
B|-----15b16---15--13--------------------------------------------------------|
G|----------------------15--14-----------------------------------------------|
D|---------------------------------------------------------------------------|
A|---------------------------------------------------------------------------|
E|---------------------------------------------------------------------------|

End Solo, I See London...

e|-------18-18-17-----15-------------------------------------------------------|
B|-----------------18-----18--15--18----x3---15---18---15--------x2------------|
G|----------------------------------------------------------17-----------------|
D|-----------------------------------------------------------------------------|
A|-----------------------------------------------------------------------------|
E|-----------------------------------------------------------------------------|
comments
print report bad tab
7 comments total. Showing first comments.
0 reply
DisfunktionNL wrote on October 13 2006, 11:26 am

May I remind you that you forgot like 3/4 of the song?

0 reply
greendayperson wrote on October 13 2006, 08:50 pm

good job dude! but are u sure that these are all the guitar parts? arent there more?

0 reply
apcud7 wrote on October 14 2006, 06:04 pm

of course there are more parts. this is all i have right now. i don't see you posting anything disfunctional. at least i got this up. thetuning is a little wierd. i know the verse is like Power chords on Ab and Db and Gb but im not sure what else. Just knew some so i figured id post it. at least its something and what i have is totally right

I want to post or [tab]
guest
You may want to rate the tab now too:
select rating
Please do not post tabs as comments. Select "correction" instead!