Oops, an error
Loading. Please wait.

Shadowplay Bass Tab

version 1
version 1

Whole song

Interactive

3,148 views 3 this week
1 commentread comment
1 2 3 4 5
please rate
add to favorites
launch autoscroll
font size
0
reset
guitar tuner
Tab Pro tools
  • play this tab
  • loop segment
  • change instrument
  • show fretboard
  • metronome
×
Best way to learn
"Shadowplay"
Autoscroll
slow
fast
+/-
esc
set tempo
stop
Contributor
G-------------------------------------------------------------------------|
D---1-1-1-1-1-1-1-1-1-1-1-1-1---3-3---------------------------------------|
A-------------------------------------------------------------------------|
E------------------------------------4-4-4-4-4-4-4-4-4-4-4-4-4-4-4--------|

G-------------------------------------------------------------------------|
D---1-1-1-1-1-1-1-1-1-1-1-1-1---3-3---------------------------------------|
A-------------------------------------------------------------------------|
E------------------------------------4-4-4-4-4-4-4-4-4-4-4-4-4-4-4--------|

G---------------------------------------------|
D---------------------------------------------|
A---------------------------------------------|
E---4--------4---2---4-------4-----2----------|

G-------------------------------------------------------------------------|
D---1-1-1-1-1-1-1-1-1-1-1-1-1---3-3---------------------------------------|
A-------------------------------------------------------------------------|
E------------------------------------4-4-4-4-4-4-4-4-4-4-4-4-4-4-4--------|

solo part
G----------------------------------------------|
D---10----8---5----10-10---8---5-12------------|
A----------------------------------------------|
E----------------------------------------------|

repeat top

G--------------------------------------------------------------------------|
D---1-1-1-1-1-1-1-1-1-1-1-1-1-1-3-3-5-5-5-5-5-5-5-5-5-5-5-5-5-5-5-5-5------|
A--------------------------------------------------------------------------|
E--------------------------------------------------------------------------|

G----------------------------------------------|
D---10----8---5----10-10---8---5-12------------|
A----------------------------------------------|
E----------------------------------------------|

repeat till end
Thank you!!!!
Drum-Stix
comments
We did not receive enough feedback on this tab! Please rate:
print report bad tab
1 2 3 4 5
1 comment total.
0 reply
BreAkdOwn396 wrote on September 30 2008, 06:20 pm

its WAY flat, ill tab it myself

I want to post or [tab]
guest
You may want to rate the tab now too:
select rating
Please do not post tabs as comments. Select "correction" instead!