Oops, an error
Loading. Please wait.

Shadowplay Bass Tab

version 3
version 3

Whole song

Interactive

9,706 views 9 this week
3 commentsread comments
1 2 3 4 5
excellent!
x 10
add to favorites
launch autoscroll
font size
0
reset
guitar tuner
Tab Pro tools
  • play this tab
  • loop segment
  • change instrument
  • show fretboard
  • metronome
×
Best way to learn
"Shadowplay"
Autoscroll
slow
fast
+/-
esc
set tempo
stop
Contributor
Difficulty
intermediate
ok, my first tab wasn't that good, but thanks to BreAkdOwn396 for pointing it out 
for me. thanks man!!!!

G------------------------------------------------------------------------|
D----3-3-3-3-3-3-3-3-3-3-3-3-3----5--------------------------------------|
A------------------------------------0-0-0-0-0-0-0-0-0-0-0-0-0-0-0-0-----|
E------------------------------------------------------------------------|

G------------------------------------------------------------------------|
D----3-3-3-3-3-3-3-3-3-3-3-3-3----5--------------------------------------|
A------------------------------------0-0-0-0-0-0-0-0-0-0-0-0-0-0-0-0-----|
E------------------------------------------------------------------------|

G------------------------------------------------------------------------|
D----3-3-3-3-3-3-3-3-3-3-3-3-3----5--------------------------------------|
A------------------------------------0-0-0-0-0-0-0-0-0-0-0-0-0-0-0-0-----|
E------------------------------------------------------------------------|

G------------------------------------------------------------------------|
D----3-3-3-3-3-3-3-3-3-3-3-3-3----5--------------------------------------|
A------------------------------------0-0-0-0-0-0-0-0-0-0-0-0-0-0-0-0-----|
E------------------------------------------------------------------------|

G------------------------------------------------------------------------|
D----3-3-3-3-3-3-3-3-3-3-3-3-3----5--------------------------------------|
A------------------------------------0-0-0-0-0-0-0-0-0-0-0-0-0-0-0-0-----|
E------------------------------------------------------------------------|

G------------------------------------------------------------------------|
D----3-3-3-3-3-3-3-3-3-3-3-3-3----5--------------------------------------|
A------------------------------------0-0-0-0-0-0-0-0-0-0-0-0-0-0-0-0-----|
E------------------------------------------------------------------------|

You get the idea. But there's more!!! There's the solo part, starting
soon after the final line sung. You wait for a minute, and start this riff.

G-----7---5---------7-7---5-------9----7--5-------7-7---5---------|
D------------7----------------7--------------7--------------7-----|
A-----------------------------------------------------------------|
E-----------------------------------------------------------------|

Repeat it, then go like this!!!!

G----7-7-7-7-9-9-9-10-10-10-10-9-9-9-9--7-9-7-5--7-5-4--4--4--4--4----|
D---------------------------------------------------------------------|
A---------------------------------------------------------------------|
E---------------------------------------------------------------------|

G----7-7-7-7-9-9-9-9-10-10-10-10-12-12-12-12-14-14-14-14-16-16-16-------|
D-----------------------------------------------------------------------|
A-----------------------------------------------------------------------|
E-----------------------------------------------------------------------|

G--17--16-17-16-17-16-14--|
D-------------------------|
A-------------------------|
E-------------------------|

G---14-16---14-16--14-12--14-12-14-12-14-10------|
D------------------------------------------------|
A------------------------------------------------|
E------------------------------------------------|

G---14-16---14-16--14-12--14-12-14-12-10-10------|
D------------------------------------------------|
A------------------------------------------------|
E------------------------------------------------|

G--14-16--14-16-16-16-16-17-17-17-17-19-19-19-19--|
D-------------------------------------------------|
A-------------------------------------------------|
E-------------------------------------------------|

G---7--5--------7-7--5------9---7-|(hold)
D----------7------------7---------|
A---------------------------------|
E---------------------------------|

Again, thanks to BreAkdOwn396 for your concern with my
first tab,and for showing the main lick!!! I really appreciate it!!!
comments
print report bad tab
3 comments total.
0 reply
BreAkdOwn396 wrote on June 26 2009, 04:47 pm

nice job with the solo! i guess i thought it was a second guitar or somthing, in fact i dont know what i was thinking lol. But great job, better than the first ;)

0 reply
Drum-stix wrote on August 29 2009, 08:03 am

thanks. i realized that the first one, i was doing on the top guitarb strings, but tabbed it as a bass! Thanks for pointing me in the right direction on that one! couldn't have done it without you!

0 reply
mikeyknowsbetter wrote on June 27 2010, 06:46 am

well doneman

I want to post or [tab]
guest
You may want to rate the tab now too:
select rating
Please do not post tabs as comments. Select "correction" instead!