Oops, an error
Loading. Please wait.

Shot At The Night bass

2,838 views 12 this week
2 commentsread comments
1 2 3 4 5
x 3
add to favorites
×
Save as Personal and add changes to this tab that will be seen only by you. Learn more ›
×
You can save this tab as Personal to edit and correct it or add notes. All changes will be seen only by you. Learn more »
launch autoscroll
font size
0
reset
guitar tuner
edit
Autoscroll
slow
fast
+/-
esc
set tempo
stop
-----------------------------------------------------------------------------
                     Shot At The Night - The Killers
-----------------------------------------------------------------------------

Tabbed by: Country Bass
E-mail: aaron.white8@education.nsw.gov.au

This is a really easy song, really catchy, have fun :)

Tuning: Standard

Intro

G|--------------------------|
D|--------------------------|
A|--------8----12-----------| x2
E|--6----------------10--8--|

Verse

G|--------------------------|
D|--------------------------|
A|--------8----12-----------| x2
E|--6----------------10--8--|

G|--------------------------|
D|--------------------------|
A|--------8----12-----------|
E|--6-----------------------|

Chorus

G|-------------------------------------|
D|-------------------------------------|
A|--------8-8-8-8-8--------------------| x4
E|--6-6-6-----------10-10-10-8-8-8-8-8-|

Verse 2

G|--------------------------|
D|--------------------------|
A|--------8----12-----------| x3
E|--6----------------10--8--|

G|--------------------------|
D|--------------------------|
A|--------8----12-----------|
E|--6-----------------------|

Chorus 2

G|-------------------------------------|    |---|
D|-------------------------------------|    |---|
A|--------8-8-8-8-8--------------------| x5 |---|
E|--6-6-6-----------10-10-10-8-8-8-8-8-|    |-6-|

Bridge

G|--------------------|     |---|
D|--------------------|     |---|
A|------8-------------| x10 |---|
E|--6--------10--8----|     |-6-|

Outro Chorus

G|-------------------------------------|    |---|
D|-------------------------------------|    |---|
A|--------8-8-8-8-8--------------------| x7 |---|
E|--6-6-6-----------10-10-10-8-8-8-8-8-|    |-6-|


Playing Order

Intro
Verse 
Chorus
Verse 2
Chorus 2
Bridge
Outro Chorus


| /  slide up
| \  slide down
| h  hammer-on
| p  pull-off
| ~  vibrato
| +  harmonic
| x  Mute note
=============================================================================
Suggest correction
Creating personal tab
Creating personal tab
You can edit any tab online and save it as your Personal.

You can edit, replace or remove any tab part or add personal notes – all changes will be seen only by you.

Personal tabs can be accessed anytime from any device, even offline.
Learn more »
Give kudos to tab author, rate the tab!
1 2 3 4 5
comments
print report bad tab
2 comments total.
+1 reply
milko180 55 Mar 20, 2014 03:49 PM

I believe the 11s are 12s but i could be wrong. The 11's sound off to me.

guest
You may want to rate the tab now too:
select rating
Wanna post a correction for this tab? Suggest correction