Oops, an error
Loading. Please wait.

Smile Like You Mean It Bass Tab

version 3
version 3

Whole song

11,517 views 84 this week
3 commentsread comments
1 2 3 4 5
accurate
x 10
add to favorites
launch autoscroll
font size
0
reset
guitar tuner
Tab Pro tools
  • play this tab
  • loop segment
  • change instrument
  • show fretboard
  • metronome
Autoscroll
slow
fast
+/-
esc
set tempo
stop
Difficulty
novice
INTRO / VERSE
G-------------------------------------------------------------|
D-------------------------------------------------------------|
A-9-9-9-9-9-/13-----------------6-6-6-6-6-4-4-6-6-6-6-6-4-4-6-|
E------------------4---4-4-4-4-4------------------------------|x6

CHORUS x2
G-------------------------------------------------------|
D-------------------------------------------------------|
A-1---1-1----1-2---2---2---2----------------------------|
E-----------1--------------------2---2---2-2---1---1--1-|

VERSE
G-------------------------------------------------------------|
D-------------------------------------------------------------|
A-9-9-9-9-9-/13-----------------6-6-6-6-6-4-4-6-6-6-6-6-4-4-6-|
E------------------4---4-4-4-4-4------------------------------|

G------------------------------------------------------|
D------------------------------------------------------|
A-9-9-9-9-9-/13--------------------2---2---2-1-2---1-2-|
E--------------------4---4---4---4---------------------|

G-------------------------------------------------------------|
D-------------------------------------------------------------|
A-9-9-9-9-9-/13-----------------6-6-6-6-6-4-4-6-6-6-6-6-4-4-6-|
E------------------4---4-4-4-4-4------------------------------|x2

CHORUS

BRIDGE
G----------------------------------------------------------------|
D----------------------------------------------------------------|
A-4---4---4---4-4---6---6---6-6-6-6------------------------------|
E-------------------------------------------7---7---7---7-7-7-7--|x2

G-----------------------------------------|
D-----------------------------------------|
A-11-11-11-11-11-11-11-6-6-6-6-6-4-4-6-6--|
E-----------------------------------------|x3


G------------------------------------------------------------------|
D------------------------------------------------------------------|
A-11-11-11-11-11-11-11---1-1-1-1-1-1-1-2-2-2-2-2-2-4-4-4-4-4-4-4-/-|
E------------------------------------------------------------------|

CHORUS x2
G-----------------------------------------------------|
D-----------------------------------------------------|
A-1- -1-1----1-2---2---2---2--------------------------|
E----------1--------------------2---2---2-2---1--1--1-|

G------------------------------------------------------------|
D------------------------------------------------------------|
A-1---1-1—1-2---2---2-2-2-9---9---9----9---8---8-------------|
E--------1-------------------------------9-----------9---9-9-|

INTRO PART

END
G------------|
D------------|
A---6-/-1----|
E----------0-|

The notes are definately 100% correct. There are others that are right on notes, but 
tab is most likely easier and not too high up on the neck. Rhythm may not be EXACTLY as 
play, but this is just an idea of how it is played.
comments
print report bad tab
3 comments total.
0 reply
Skerlnik wrote on December 15 2009, 12:08 am

Well, not a bad tab, but not 100% correct like you claim, sir. This is actually played a 1/2 step down because that very last open E is *actually* an open Eb.

For people looking at this tab, just add a 1 to each number, but still play the last note open.

0 reply
Bassprogman wrote on December 10 2012, 07:22 pm

It sounds pretty close to me

0 reply
Bassprogman wrote on December 20 2012, 05:59 pm

NO. Its pretty perfect

I want to post or [tab]
guest
You may want to rate the tab now too:
select rating
Please do not post tabs as comments. Select "correction" instead!