Oops, an error
Loading. Please wait.

Smile Like You Mean It Tab

version 3
version 3

Whole song

24,491 views 42 this week
3 commentsread comments
1 2 3 4 5
excellent!
x 3
add to favorites
launch autoscroll
font size
0
reset
how to read this tab
guitar tuner
Tab Pro tools
  • play this tab
  • loop segment
  • change instrument
  • show fretboard
  • metronome
×
Best way to learn
"Smile Like You Mean It"
Autoscroll
slow
fast
+/-
esc
set tempo
stop
Contributor
Song      - Smile Like You Mean It
Artist    - The Killers
Tuning    - Standard
Tabbed By - Nedelko
Any comments, queries or suggestions email me at candidate_1066@hotmail.com

This is a great song, Dave Keuning plays this down a semitone but this is for standard tuning.

INTRO RIFF 1
E|------------------------------------------------------------------|
B|------------------------------------------------------------------|
G|------------------------------------------------------------------|
D|------------------------------9-9---------------------------------|
A|-7-7-7-7-7-7-7-10-10-10-10-10-----7-------------------------------|
E|------------------------------------------------------------------|
After the above is played so many times chords are played
   G                 Am             Em
E|-3-3-3-3-3-3-3-----0-0---0-0-0-0--0-0-0---0-0-0-0---0-0-0-0-0-0-0-|
B|-0-0-0-0-0-0-0-----1-1---1-1-1-1--0-0-0---0-0-0-0---0-0-0-0-0-0-0-|
G|-0-0-0-0-0-0-0--2--2-2---2-2-2-2--0-0-0---0-0-0-0---0-0-0-0-0-0-0-|
D|-0-0-0-0-0-0-0--2--2-2---2-2-2-2--2-2-2---2-0-0-2---2-2-2-2-2-2-2-|
A|-2-2-2-2-2-2-2--0--0-0---0-0-0-0--2-2-2---2-0-0-2---2-2-2-2-2-2-2-|
E|-3-3-3-3-3-3-3--------------------0-0-0---0-0-0-0---0-0-0-0-0-0-0-|

VERSE -Play below twice then             this
E|-0-0-0-0-0-0-0-0-0-0-0-0-0-0-0--0--|-0-0-0-0-0--------------------|
B|-5-5-5-5-8-5-5-8-5-5-8-5-8-5-10-12-|-5-5-5-5-0--0--0--------------|
G|------------------------------------------------0--0--------------|
D|------------------------------------------------0--0--------------|
A|------------------------------------------------0--0--------------|
E|------------------------------------------------------------------|
Then the chords G Am and Em are played again with the same pattern as before.

CHORUS
   G/B          Cadd9           G               Dadd11/F#
E|-3-3-3--3-3-3-3----3-3--3-3-3-3--3---3---3-3-3-3----3-3---3-3-3-0-|
B|-3-3-3--3-3-3-3----3-3--3-3-3-0--0---0---0-0-0-3----3-3---3-3-3-0-|
G|-0-0-0--0-0-0-0----0-0--0-0-0-0--0---0---0-0-0-2----2-2---2-2-2-0-|
D|-0-0-0--0-0-0-2----2-2--2-2-2-0--0---0---0-0-0-0----0-0---0-0-0-0-|
A|-2-2-2--2-2-2-3----3-3--3-3-3-------------------------------------|
E|------------------------------3--3---3---3-3-3-2----2-2---2-2-2---|

SOLO
E|-14---14---14---14---15---15---15---------------------------------|
B|---15---15---15---15---15---15---15---12---12---13---13---15---15-|
G|-----------------------------------------12---12---12---12---12---|
D|------------------------------------------------------------------|
A|------------------------------------------------------------------|
E|------------------------------------------------------------------|

SOLO CONTD
E|------------------------------------------------------------------|
B|----15---15----12---------------------------13-12----12-15--15B17-|
G|-12---12---12--12--------14~~~~--12------12-------12--------------|
D|---------------12--12-12-------------14---------------------------|
A|------------------------------------------------------------------|
E|------------------------------------------------------------------|

SOLO CONTD
E|-15-----15------15------15------15--------------------------------|
B|---15B17---15B17---15B17---15B17---15-13-12-----------------------|
G|------------------------------------------------------------------|
D|------------------------------------------------------------------|
A|------------------------------------------------------------------|
E|------------------------------------------------------------------|

BRIDGE w/delay
E|------------------------------------------------------------------|
B|--------------12-12-------12-13-----------12--12-12----12-12-13-13|
G|--14-14----14-------14----------14----14--12--12-12-12-12-12-12-12|
D|--------14-------------14----------14-----------------------------|
A|------------------------------------------------------------------|
E|------------------------------------------------------------------|

E|------------------------------------------------------------------|
B|-13-13-13-13-12-12-12-12-12-12-12-12-12-12-12-12-12-12-13-13-13-13|
G|-12-12-12-12-12-11-11-11-11-11-11-11-11-11-11-11-11-11-12-12-12-12|
D|------------------------------------------------------------------|
A|------------------------------------------------------------------|
E|------------------------------------------------------------------|
                                                   Grad. Bend Up
E|------------------------------------------------------------------|
B|-13-13-13-13-13-13-13-13-13-13-12-15-15-15-15-15-15-15-15-15-15-15|
G|-12-12-12-12-12-12-12-12-12-12-12-14-14-14-14-14-14-14-14-14-14-14|
D|------------------------------------------------------------------|
A|------------------------------------------------------------------|
E|------------------------------------------------------------------|

OUTRO
Chords are G Am Em, 
       G G/b Am Em,
         End on Em.

Thanks and enjoy.
comments
We did not receive enough feedback on this tab! Please rate:
print report bad tab
1 2 3 4 5
3 comments total.
0 reply
Scorzerci wrote on August 29 2005, 12:00 am

you copied that from total guitar didnt you?

0 reply
im2emorock wrote on August 30 2005, 12:00 am

yeh, im sure he did like whoeva jst tabbed 'this is a call'

0 reply
AnarchyGuitarst wrote on August 30 2005, 12:00 am

Ha.

I want to post or [tab]
guest
You may want to rate the tab now too:
select rating
Please do not post tabs as comments. Select "correction" instead!