Oops, an error
Loading. Please wait.

Smile Like You Mean It Bass Tab

version 4
version 4

Whole song

5,004 views 7 this week
no commentswrite comment
1 2 3 4 5
please rate
add to favorites
launch autoscroll
font size
0
reset
guitar tuner
Tab Pro tools
  • play this tab
  • loop segment
  • change instrument
  • show fretboard
  • metronome
×
Best way to learn
"Smile Like You Mean It"
Autoscroll
slow
fast
+/-
esc
set tempo
stop
Contributor
Tabbed By : jaronthebassist

                          Smile Like you Mean It                           


                                                                The Killers
Bass



     W                   W                    W                 
G||-------------------|-------------------|--------------------|
D||-------------------|-------------------|--------------------|
A||--6----------------|--L----------------|--11----------------|
E||-------------------|-------------------|--------------------|


  W                    W                   W                 
-------------------|--------------------|-------------------|
-------------------|--------------------|-------------------|
--L----------------|--14----------------|--L----------------|
-------------------|--------------------|-------------------|


   W                   H.            Q          E  E  E  E  E  Q    E   
--------------------|----------------------||--------------------------|
--------------------|----------------------||*-----------------8-------|
--16----------------|--L------------16S----||*--9--9--9--9--9----------|
--------------------|----------------------||-----------------------6--|


  E  E  Q    E  E  E  E     E  E  E  E  E  Q    E   
-------------------------|-------------------------|
-------------------------|-------------------------|
-------------------------|--6--6--6--6--6--4----6--|
--L--4--4----4--4--4--4--|-------------------------|


  E  E  E  E  E  E  E  E   6x   E  E  Q    E  E  E  E   
---------------------------||--------------------------|
--------------------------*||*-------------------------|
--L--6--6--6--6--4--4--6--*||*-------------------------|
---------------------------||---6--6--6----6--6--6--7--|


  E  E  Q    E  E  E  E     Q    Q    E  E  E  E   
-------------------------|------------------------|
-------------------------|------------------------|
-------------------------|--9----9----9--9--9--8--|
--L--7--7----7--7--7--7--|------------------------|


  E  E  E  E  E  E  E  E        E  E  E  E  E  Q    E   
---------------------------||--------------------------|
--------------------------*||*-----------------8-------|
--L--8--8--8--8--8--8--8--*||*--9--9--9--9--9----------|
---------------------------||-----------------------6--|


  E  E  Q    E  E  E  E     E  E  E  E  E  Q    E   
-------------------------|-------------------------|
-------------------------|-------------------------|
-------------------------|--6--6--6--6--6--4----6--|
--L--4--4----4--4--4--4--|-------------------------|


  E  E  E  E  E  E  E  E       E  E  E  E  E  E  E  E   
---------------------------||--------------------------|
--------------------------*||--------------------------|
--L--6--6--6--6--4--4--6--*||--------------------------|
---------------------------||--6--7--7--7--6--7--7--7--|


  E  E  E  E  E  E  E  E       E  E  E  E  E  Q    E   
--------------------------||--------------------------|
--------------------------||*-----------------8-------|
--------------------------||*--9--9--9--9--9----------|
--6--7--7--7--6--7--7--7--||-----------------------6--|


  E  E  Q    E  E  E  E     E  E  E  E  E  Q    E   
-------------------------|-------------------------|
-------------------------|-------------------------|
-------------------------|--6--6--6--6--6--4----6--|
--L--4--4----4--4--4--4--|-------------------------|


  E  E  E  E  E  E  E  E       W                 
---------------------------||-------------------|
--------------------------*||-------------------|
--L--6--6--6--6--4--4--6--*||-------------------|
---------------------------||-------------------|


    E  E  Q    E  E  E  E     E  E  Q    E  E  E  E   
|--------------------------|-------------------------|
|*-------------------------|-------------------------|
|*-------------------------|-------------------------|
|---6--6--6----6--6--6--7--|--L--7--7----7--7--7--7--|


  Q    Q    E  E  E  E     E  E  E  E  E  E  E  E     
------------------------|---------------------------||
------------------------|--------------------------*||
--9----9----9--9--9--8--|--L--8--8--8--8--8--8--8--*||
------------------------|---------------------------||


   E  E  E  E  E  E  E  E     E  E  E  E  E  E  E  E   
---------------------------|--------------------------|
*--------------------------|--------------------------|
*--4--4--4--4--4--4--4--6--|--L--6--6--6--6--6--6--6--|
---------------------------|--------------------------|


  E  E  E  E  E  E  E  E     E  E  E  E  E  E  E  E     
--------------------------|---------------------------||
--------------------------|--------------------------*||
--------------------------|--------------------------*||
--7--7--7--7--7--7--6--7--|--L--7--7--7--7--7--7--7---||


   E  E  E  E  E  E  E  E     E  E  E  E  E  E  E  E   
---------------------------|--------------------------|
*--6--6--6--6--6--6--6--6--|--L--6--6--6--6--6--6--6--|
*--------------------------|--------------------------|
---------------------------|--------------------------|


  E  E  E  E  E  E  E  E     E  E  E  E  E  E  E  E     
--------------------------|---------------------------||
--------------------------|--------------------------*||
--6--6--6--4--6--6--4--6--|--L--6--6--4--6--6--6--6--*||
--------------------------|---------------------------||


  E  E  E  E  E  E  E  E     E  E  E  E  E  E  E  E   
--------------------------|--------------------------|
--6--6--6--6--6--6--6--6--|--L--6--6--6--6--6--6--6--|
--------------------------|--------------------------|
--------------------------|--------------------------|


  E  E  E  E  E  E  E  E     E  E  E  E  E  E  E  E   
--------------------------|--------------------------|
--------------------------|--------------------------|
--------------------------|--------------------------|
--6--6--6--4--6--6--4--6--|--L--6--6--4--6--6--6--6--|


  E  E  E  E  E  E  E  E     E  E  E  E  E  E  E  E   
--------------------------|--------------------------|
--------------------------|--------------------------|
--------------------------|--------------------------|
--7--7--7--6--7--7--6--7--|--L--7--7--7--7--7--7--7--|


  E  E  E  E  E  E  E    E      E   E   E   E   E   E   E   E   
----------------------------|----------------------------------|
----------------------------|----------------------------------|
--4--4--4-----4--4--4S--16--|--16--16--16--16--16--16--16--16--|
-----------7----------------|----------------------------------|


    E  E  Q    E  E  E  E     E  E  Q    E  E  E  E   
|--------------------------|-------------------------|
|*-------------------------|-------------------------|
|*-------------------------|-------------------------|
|---6--6--6----6--6--6--7--|--L--7--7----7--7--7--7--|


  Q    Q    E  E  E  E     E  E  E  E  E  E  E  E   4x
------------------------|---------------------------||
------------------------|--------------------------*||
--9----9----9--9--9--8--|--L--8--8--8--8--8--8--8--*||
------------------------|---------------------------||


   E  E  E  E  E  Q    E     E  E  Q    E  E  E  E   
--------------------------|-------------------------|
*-----------------8-------|-------------------------|
*--9--9--9--9--9----------|-------------------------|
-----------------------6--|--L--4--4----4--4--4--4--|


  E  E  E  E  E  Q    E     E  E  E  E  E  E  E  E     
-------------------------|---------------------------||
-------------------------|--------------------------*||
--6--6--6--6--6--4----6--|--L--6--6--6--6--4--4--6--*||
-------------------------|---------------------------||


  E  E  E  Q    E  E  E     E  E  E  Q    E  E  E   
-------------------------|-------------------------|
----------------8--8--6--|--6--6--6-------6--6--6--|
--9--9--9----------------|-------------------------|
-------------------------|-------------------------|


  E  E  E  Q    E  E  E     E  E  E  Q    E  E  E   
-------------------------|-------------------------|
-------------------------|-------------------------|
--6--6--6-------6--6--6--|--6--6--6-------6--6--6--|
-------------------------|-------------------------|


  E  E  E  Q    E  E  E     E  E  E  Q    E  E  E     H        H         
-------------------------|-------------------------|--8-----------------|
----------------8--8--6--|--6--6--6-------6--6--6--|-----------8--------|
--9--9--9----------------|-------------------------|--------------------|
-------------------------|-------------------------|--------------------|


  W                  
-------------------||
-------------------||
--6----------------||
-------------------||




Duration Legend
---------------
W - whole
H - half
Q - quarter
E - 8th
S - 16th
T - 32nd
X - 64th
. - note dotted
|-n-|  - n-tuplets


Tablature Legend
----------------
L - tied note
x - dead note
g - grace note
(n) - ghost note
> - accentuded note
NH - natural harmonic
AH - artificial harmonic
TH - tapped harmonic
SH - semi harmonic
PH - pitch harmonic
h - hammer on
p - pull off
b - bend
br - bendRelease
pb - preBend
pbr - preBendRelease
brb - bendReleaseBend
\n/ - tremolo bar dip
\n - tremolo bar dive
-/n - tremolo bar Release up
/n\ - tremolo bar inverted dip
/n - tremolo bar return
-\n - tremolo bar Release down
S - shift slide
s - legato slide
/ -  slide into from below or out of upwards
\ -  slide into from above or out of downwards
~ - vibrato
W - wide vibrato
tr - trill
TP - tremolo picking
T - tapping
S - slap
P - pop
< - fade in
^ - brush up
v - brush down
comments
We did not receive enough feedback on this tab! Please rate:
print report bad tab
1 2 3 4 5
I want to post or [tab]
guest
You may want to rate the tab now too:
select rating
Please do not post tabs as comments. Select "correction" instead!