Oops, an error
Loading. Please wait.

Somebody Told Me Bass Tab

version 3
21,326 views 1 this week
7 commentsread comments
1 2 3 4 5
accurate
x 8
add to favorites
launch autoscroll
font size
0
reset
guitar tuner
Tab Pro tools
  • play this tab
  • loop segment
  • change instrument
  • show fretboard
  • metronome
×
Best way to learn
"Somebody Told Me"
Autoscroll
slow
fast
+/-
esc
set tempo
stop
Contributor
Difficulty
advanced
                              Somebody Told Me                                 


                                                                     The Killers
Bass



     W                                           E  E  E  E  E  E  E  E   
G||-------------------|-------|-------|-------|--------------------------|
D||-------------------|-------|-------|-------|-----8--8-----6--6--------|
A||-------------------|-------|-------|-------|--------------------6--9--|
E||--6----------------|-------|-------|-------|--6--------6--------------|


  E  Q    E  E  Q    E     E  E  H.               W                 
------------------------|----------------------|-------------------|
------------------------|-----8--8S------------|-------------------|
--L--9----9--8--8-------|----------------------|-------------------|
---------------------9--|--6-------------------|-------------------|


  E  E  E  E  E  E  E  E     E  E  E  E  E  E  E  E     W                  
--------------------------|--------------------------|--------------------|
--------------------------|--------------------------|--8S----------------|
--6--6--6--6--4--4--6--9--|--L--9--9--8--9--9--9--8--|--------------------|
--------------------------|--------------------------|--------------------|


  W                   E  E  E  E  E  E  E  E     E  E  E  E  E  E  E  E    
-------------------|--------------------------|---------------------------|
-------------------|--------------------------|---------------------------|
-------------------|--1--1--1--1--1--1--1--1--|--1--1--1--1--1--1--1--1S--|
-------------------|--------------------------|---------------------------|


   E   E   E   E   E   E   E   E      Q     Q     Q     Q      
----------------------------------|---------------------------|
----------------------------------|---------------------------|
--13--13--13--13--13--13--13--13--|--13----13----13----13S----|
----------------------------------|---------------------------|


  E  E  E  E  E  E  E  E     E  E  E  E  E  E  E  E   
--------------------------|--------------------------|
--------------------------|--------------------------|
--6--6--6--6--6--6--6--9--|--L--9--9--8--9--9--8-----|
--------------------------|-----------------------9--|


  E  E  E  E  E  E  E  E     E  E  E  E  E  S E.  E   
--------------------------|--------------------------|
--------------------------|-------------------8------|
--------------------------|-----------------8-----8--|
--6--6--6--6--6--6--6--6--|--6--6--6--6--6-----------|


  E  E  E  E  E  E  E  E     E  E  E  E  E  E  E  E   
--------------------------|--------------------------|
--------------------------|--------------------------|
--------------------------|--------------------------|
--6--6--6--6--6--6--6--6--|--6--6--6--6--6--6--6--6--|


  E  E  E  E  E  E  E  E     E  E  E  E  E  E  E  E   
--------------------------|--------------------------|
--------------------------|--------------------------|
--------------------------|--------------------8--8--|
--6--6--6--6--6--6--6--6--|--6--6--8--8--9--9--------|


  E  E  E  E  E  E  E  E     E  E  E  E  E  E  E  E   
--------------------------|--------------------------|
--------------------------|--------------------------|
--6--6--6--6--6-----8--9--|--L--9--9--8--9--9--8-----|
-----------------6--------|-----------------------9--|


  E  E  E  E  E  E  E  E     E  E  E  E  E  S S E  E   
--------------------------|---------------------------|
--------------------------|-----------------8---8-----|
--------------------------|-------------------8----8--|
--6--6--6--6--6--6--6--6--|--6--6--6--6--6------------|


  E  E  E  E  E  E  E  E     E  E  E  E  E  E  E  E    
--------------------------|---------------------------|
--------------------------|---------------------------|
--------------------------|---------------------------|
--6--6--6--6--6--6--6--6--|--6--6--8--8--9--9--8--8S--|


  E  E  E  E  E  E  E  E     E  E  E  E  E  E  E  E   
--------------------------|--------------------------|
--------------------------|--------------------------|
--------------------------|--------------------------|
--2--2--2--2--2--2--2--2--|--4--4--4--4--4--4--4--4--|


  E  E  E  E  E  E  E  E     E  S S E  E  E  E  Q      
--------------------------|---------------------------|
--------------------------|-------8-L-----8-----8S----|
--------------------------|-----8------8-----8--------|
--6--6--6--4--6--6--6--4--|--6------------------------|


  E  E  E  E  E  E  E  E     E  E  E  E  E  E  E  E   
--------------------------|--------------------------|
--------------------------|--------------------------|
--------------------------|--------------------------|
--2--2--2--2--2--2--2--2--|--2--2--2--2--2--2--2--2--|


  E  E  E  E  E  E  E  E     E  E  H        E  E     E  E  E  E  E   E  Q     
--------------------------|-----------------------|-----------9-----11-------|
--------------------------|-----------------------|--------------------------|
--------------------------|-----------------------|--------------------------|
--4--4--4--4--4--4--4--4--|--4-----4-----------4--|--6--7--7-----------------|


  E  E  E   E  E  E  Q       E  E  E  E  E  E  Q       E  E  E  E  E  E  Q     
-----------11-----9-------|-----------7-----9-------|-----------7-----6-------|
--------------------------|-------------------------|-------------------------|
--------------------------|-------------------------|-------------------------|
--2--3--3-----------------|--4--5--5----------------|--5--1--1----------------|


  E  E  E  E  E   E  Q       E  E  E   E  E  E  Q       E  E  E  E  E  E  Q     
-----------9-----11-------|-----------11-----9-------|-----------7-----9-------|
--------------------------|--------------------------|-------------------------|
--------------------------|--------------------------|-------------------------|
--6--7--7-----------------|--2--3--3-----------------|--4--5--5----------------|


        E  E  E  E  E  E  E  E     E  E  E  E  E  S E.  E   
-----|--------------------------|--------------------------|
-----|--------------------------|-------------------8------|
-----|--------------------------|-----------------8-----8--|
-----|--6--6--6--6--6--6--6--6--|--6--6--6--6--6-----------|


  E  E  E  E  E  E  E  E     E  E  E  E  E  E  E  E   
--------------------------|--------------------------|
--------------------------|--------------------------|
--------------------------|--------------------8--8--|
--6--6--6--6--6--6--6--6--|--6--6--8--8--9--9--------|


  E  E  E  E  E  E  E  E     E  E  E  E  E  E  E  E   
--------------------------|--------------------------|
--------------------------|--------------------------|
--6--6--6--6--6--6--8--9--|--L--9--9--8--9--9--8-----|
--------------------------|-----------------------9--|


  E  E  E  E  E  E  E  E     E  E  E  E  E  E  E  E   
--------------------------|--------------------------|
--------------------------|--------------------------|
--------------------------|--------------------------|
--6--6--6--6--6--6--6--6--|--6--6--6--6--6--4--6--4--|


  E  E  E  E  E  E  E  E     E  E  E  E  E  E  E  E    
--------------------------|---------------------------|
--------------------------|---------------------------|
--------------------------|---------------------------|
--6--6--6--6--6--6--6--6--|--6--6--8--8--9--9--8--8S--|


  E  E  E  E  E  E  E  E     E  E  E  E  E  E  E  E   
--------------------------|--------------------------|
--------------------------|--------------------------|
--------------------------|--------------------------|
--2--2--2--2--2--2--2--2--|--4--4--4--4--4--4--4--4--|


  E  E  E  E  E  E  E  E     E  S S E  E  E  E  Q      
--------------------------|---------------------------|
--------------------------|-------8-L-----8-----8S----|
--------------------------|-----8------8-----8--------|
--6--6--6--4--6--6--6--4--|--6------------------------|


  E  E  E  E  E  E  E  E     E  E  E  E  E  E  E  E   
--------------------------|--------------------------|
--------------------------|--------------------------|
--------------------------|--------------------------|
--2--2--2--2--2--2--2--2--|--2--2--2--2--2--2--2--2--|


  E  E  E  E  E  E  E  E     E  E  H        E  E     E  E  E  E  E   E  Q     
--------------------------|-----------------------|-----------9-----11-------|
--------------------------|-----------------------|--------------------------|
--------------------------|-----------------------|--------------------------|
--4--4--4--4--4--4--4--4--|--4-----4-----------4--|--6--7--7-----------------|


  E  E  E   E  E  E  Q       E  E  E  E  E  E  Q       E  E  E  E  E  E  Q     
-----------11-----9-------|-----------7-----9-------|-----------7-----6-------|
--------------------------|-------------------------|-------------------------|
--------------------------|-------------------------|-------------------------|
--2--3--3-----------------|--4--5--5----------------|--5--1--1----------------|


  E  E  E  E  E   E  Q       E  E  E   E  E  E  Q       E  E  E  E  E  E  Q     
-----------9-----11-------|-----------11-----9-------|-----------7-----9-------|
--------------------------|--------------------------|-------------------------|
--------------------------|--------------------------|-------------------------|
--6--7--7-----------------|--2--3--3-----------------|--4--5--5----------------|


  E  E  E  E  E  E  E  E     W                    W                 
--------------------------|-------------------|--------------------|
--------------------------|-------------------|--------------------|
--------------------------|--9----------------|--11----------------|
--4--4--4--4--4--4--4--4--|-------------------|--------------------|


  H.           E  E     W                   Q.     Q.     E  E   
---------------------|-------------------|----------------------|
---------------------|-------------------|----------------------|
--6---------------6--|--6----------------|--4------4---------6--|
---------------6-----|-------------------|----------------6-----|


  Q.     Q    E  E  E     W                   E  E  Q    Q    E   E   
-----------------------|-------------------|-------------------------|
-----------------------|-------------------|------------------6h--8--|
--6------6----6--4--9--|--9----------------|-----9--9----9-----------|
-----------------------|-------------------|-------------------------|


  E  E  E   E   E   E   E   E      E   E   E   E   E   E   E   E   
-------------------------------|----------------------------------|
--8--8--8--10--10--10--11--11--|--------------10--10--10--11--11--|
-------------------------------|--11--11--11----------------------|
-------------------------------|----------------------------------|


  E  E  E   E   E   E   E   E     E  E  E  E  E  E  E  E   
-------------------------------|--------------------------|
-----------11--11--11--10--10--|--------------------------|
--9--9--9----------------------|--9--9--9--9--9--9--9--9--|
-------------------------------|--------------------------|


  E  E  E  E  E  E  E   E      Q    E   Q    E   Q        Q     H.            
---------------------------|--------------------------|----------------------|
---------------------------|--------------------------|----------------------|
--8--8--8--8--8--8--8--11--|--11-------11-------11----|--11S-----------------|
---------------------------|--------------------------|----------------------|


  E  E  E  E  E   E  Q       E  E  E   E  E  E  Q       E  E  E  E  E  E  Q     
-----------9-----11-------|-----------11-----9-------|-----------7-----9-------|
--------------------------|--------------------------|-------------------------|
--------------------------|--------------------------|-------------------------|
--6--7--7-----------------|--2--3--3-----------------|--4--5--5----------------|


  E  E  E  E  E  E  Q       E  E  E  E  E   E  Q       E  E  E   E  E  E  Q     
-----------7-----6-------|-----------9-----11-------|-----------11-----9-------|
-------------------------|--------------------------|--------------------------|
-------------------------|--------------------------|--------------------------|
--5--1--1----------------|--6--7--7-----------------|--2--3--3-----------------|


  E  E  E  E  E  E  Q       E  E  E  E  E  E  E  E     E  E  E  E  E  E  E  E   
-----------7-----9-------|--------------------------|--------------------------|
-------------------------|--------------------------|--------------------------|
-------------------------|--------------------------|--------------------------|
--4--5--5----------------|--1--1--1--1--1--1--1--1--|--6--6--6--6--6--6--6--4--|


  E  E  E  E  E  E  E  E     E  E  E  E  E  E  E  E   
--------------------------|--------------------------|
--------------------------|--------------------------|
--------------------------|--------------------------|
--2--2--2--2--2--2--2--2--|--4--4--4--4--4--4--4--4--|


  E  E  E  E  E  E  E  E     E  E  E  E  E  E  E  E   
--------------------------|--------------------------|
--------------------------|--------------------------|
--------------------------|--------------------------|
--1--1--1--1--1--1--1--1--|--6--6--6--6--6--6--6--6--|


  E  E  E  E  E  E  E  E     E  E  E  E  E  E  E  E   
--------------------------|--------------------------|
--------------------------|--------------------------|
--------------------------|--------------------------|
--2--2--2--2--2--2--2--2--|--4--4--4--4--4--4--4--4--|


  E  E  E  E  E  E  E  E     E  E  E  E  E  E  E  E   
--------------------------|--------------------------|
--------------------------|--------------------------|
--------------------------|--------------------------|
--1--1--1--1--1--1--1--1--|--6--6--6--6--6--6--6--4--|


  E  E  E  E  E  E  E  E     E  E  E  E  E  E  E  E   
--------------------------|--------------------------|
--------------------------|--------------------------|
--------------------------|--------------------------|
--2--2--2--2--2--2--2--2--|--4--4--4--4--4--4--4--4--|


  E  E  E  E  E  E  E  E     E  E  E  E  E  E  E  E   
--------------------------|--------------------------|
--------------------------|--------------------------|
--------------------------|--------------------------|
--1--1--1--1--1--1--1--1--|--6--6--6--6--6--6--6--6--|


  E  E  E  E  E  E  E  E     E  E  E  E  E  E  E  E   
--------------------------|--------------------------|
--------------------------|--------------------------|
--------------------------|--------------------------|
--2--2--2--2--2--2--2--2--|--4--4--4--4--4--4--4--4--|


  E  E  E  E  E  E  E  E     E  E  H.             
--------------------------|---------------------||
--------------------------|---------------------||
--------------------------|---------------------||
--1--1--1--1--1--1--1--1--|--6--6---------------||




Duration Legend
---------------
W - whole
H - half
Q - quarter
E - 8th
S - 16th
T - 32nd
X - 64th
. - note dotted
|-n-|  - n-tuplets


Tablature Legend
----------------
L - tied note
x - dead note
g - grace note
(n) - ghost note
> - accentuded note
NH - natural harmonic
AH - artificial harmonic
TH - tapped harmonic
SH - semi harmonic
PH - pitch harmonic
h - hammer on
p - pull off
b - bend
br - bendRelease
pb - preBend
pbr - preBendRelease
brb - bendReleaseBend
\n/ - tremolo bar dip
\n - tremolo bar dive
-/n - tremolo bar Release up
/n\ - tremolo bar inverted dip
/n - tremolo bar return
-\n - tremolo bar Release down
S - shift slide
s - legato slide
/ -  slide into from below or out of upwards
\ -  slide into from above or out of downwards
~ - vibrato
W - wide vibrato
tr - trill
TP - tremolo picking
T - tapping
S - slap
P - pop
< - fade in
^ - brush up
v - brush down
comments
print report bad tab
7 comments total. Showing first comments.
+1 reply
Joel B. wrote on September 12 2008, 01:26 pm

I think the chorus is:
|-----------8-----10-------|
|--------------------------|
|--------------------------|
|--5--6--6-----------------|


E E E E E E Q E E E E E E Q E E E E E E Q
-----------10-----8-------|-----------6-----8-------|-----------6-----5-------|
--------------------------|-------------------------|-------------------------|
--------------------------|-------------------------|-------------------------|
--1--2--2-----------------|--3--4--4----------------|--4--1--1----------------|


E E E E E E Q E E E E E E Q E E E E E E Q
-----------8-----10-------|-----------10-----8-------|-----------6-----8-------|
--------------------------|--------------------------|-------------------------|
--------------------------|--------------------------|-------------------------|
--5--6--6-----------------|--1--2--2-----------------|--3--4--4----------------|

+2 reply
boycew02 wrote on February 27 2009, 05:50 am

Good tab but it's a bitch to read without headings.

+2 reply
GaurPower wrote on August 27 2009, 02:40 am

much agreed boycew02

I want to post or [tab]
guest
You may want to rate the tab now too:
select rating
Please do not post tabs as comments. Select "correction" instead!