Oops, an error
Loading. Please wait.

Somebody Told Me Tab

version 3
4,876 views 3 this week
1 commentread comment
1 2 3 4 5
accurate
x 4
add to favorites
launch autoscroll
font size
0
reset
how to read this tab
guitar tuner
Tab Pro tools
  • play this tab
  • loop segment
  • change instrument
  • show fretboard
  • metronome
×
Best way to learn
"Somebody Told Me"
Autoscroll
slow
fast
+/-
esc
set tempo
stop
Contributor
Band-The Killers
Song-Somebody told me
Tuning-a half step down
Intro
e|-------------------------------------------------|
b|-15-15-15-15-15-15-15-15-17-17-17-17-17-17-17-17-|
g|-------------------------------------------------|
d|-12-12-12-12-12-12-12-12-14-14-14-14-14-14-14-14-|
a|-------------------------------------------------|
e|-------------------------------------------------|

e|-------------------------------------------------|
b|-19-19-19-19-19-19-19-19-20-20-20-20-20-20-20-20-|
g|-------------------------------------------------|
d|-16-16-16-16-16-16-16-16-17-17-17-17-17-17-17-17-|
a|-------------------------------------------------|
e|-------------------------------------------------|

e|-------------------------------------------------|
b|-19-19-19-19-20-20-20-20-22-22-22-22-20-20-20-20-|
g|-------------------------------------------------|
d|-16-16-16-16-17-17-17-17-19-19-19-19-17-17-17-17-|
a|-------------------------------------------------|
e|-------------------------------------------------|

e|-------------------------------------------------|
b|-19-19-19-19-20-20-20-20-19-19-19-19-19-19-19-19-|
g|-------------------------------------------------|
d|-16-16-16-16-17-17-17-17-16-16-16-16-16-16-16-16-|
a|-------------------------------------------------|
e|-------------------------------------------------|

Verse
e|-----------------|-------------------------------|
b|-x-x-x-x-x-x-x-x-|-------------------------------|
g|-x-x-x-x-x-x-x-x-|-0-0-0-0-0-0-0-4-4-4-4-4-4-4-0-|
d|-x-x-x-x-x-x-x-x-|-2-2-2-2-2-2-2-0-0-0-0-0-0-0-0-|
a|-x-x-x-x-x-x-x-x-|-2-2-2-2-2-2-2-x-x-x-x-x-x-x---|
e|-----------------|-0-0-0-0-0-0-0-3-3-3-3-3-3-3---|
   flanger x8

Pre-chorus
e|-------------------------------------------------|
b|-------------------------15-15-15-15-15-15-15-15-|
g|-12-12-12-12-12-12-12 12-14-14-14-14-14-14-14-14-|
d|-12-12-12-12-12-12-12-12-------------------------|
a|-------------------------------------------------|
e|-------------------------------------------------|

e|-12-12-12-12-12-12-12-12-|-------------------------|
b|-12-12-12-12-12-12-12-12-|-------------------------|
g|-------------------------|-12-12-12-12-12-12-12-12-|
d|-------------------------|-12-12-12-12-12-12-12-12-|
a|-------------------------|-------------------------|
e|-------------------------|-------------------------|
             x2                        x2

e|--------------------------------------------------|
b|-15-15-15-15-15-15-15-15-15-15-15-15-15-----------|
g|-14-14-14-14-14-14-14-14-14-14-14-14-14-----------|
d|--------------------------------------------------|
a|--------------------------------------------------|
e|--------------------------------------------------|

Chorus
e|-----------------------------------------------------------------|
b|-7-7-7-7-7-7-7-7-8-8-8-8-8-8-8-8-5-5-5-5-5-5-5-5-2-2-2-2-2-2-2-2-|
g|-7-7-7-7-7-7-7-7-7-7-7-7-7-7-7-7-6-6-6-6-6-6-6-6-3-3-3-3-3-3-3-3-|
d|-0-0-0-0-0-0-0-0-0-0-0-0-0-0-0-0-0-0-0-0-0-0-0-0-4-4-4-4-4-4-4-4-|
a|-x-x-x-x-x-x-x-x-x-x-x-x-x-x-x-x-x-x-x-x-x-x-x-x-4-4-4-4-4-4-4-4-|
e|-7-7-7-7-7-7-7-7-7-7-7-7-7-7-7-7-5-5-5-5-5-5-5-5-2-2-2-2-2-2-2-2-|

Bridge
e|-12---- 12-----12-12--------------12-12---------------|
b|-----15-----15-------15--12----12-------15--12----12--|
g|----------------------------14-----------------14-----|
d|------------------------------------------------------|
a|------------------------------------------------------|
e|------------------------------------------------------|

e|-12---- 12-----12-12--------------12-----|-12--12--------------|
b|-----15-----15-------15--12----12-----15-|--------15-12----12--|
g|----------------------------14-----------|--------------14-----|
d|-----------------------------------------|---------------------|
a|-----------------------------------------|---------------------|
e|-----------------------------------------|---------------------|
                                                   x6
e|---------------------------------|
b|---------------------------------|
g|-14---14-14-14-14-14-14----------|
d|-14---14-14-14-14-14-14----------|
a|---------------------------------|
e|---------------------------------|

last Chorus
e|-----------------------------------------------------------------|
b|-7-7-7-7-7-7-7-7-8-8-8-8-8-8-8-8-5-5-5-5-5-5-5-5-2-2-2-2-2-2-2-2-|
g|-7-7-7-7-7-7-7-7-7-7-7-7-7-7-7-7-6-6-6-6-6-6-6-6-3-3-3-3-3-3-3-3-|
d|-0-0-0-0-0-0-0-0-0-0-0-0-0-0-0-0-0-0-0-0-0-0-0-0-4-4-4-4-4-4-4-4-|
a|-x-x-x-x-x-x-x-x-x-x-x-x-x-x-x-x-x-x-x-x-x-x-x-x-4-4-4-4-4-4-4-4-|
e|-7-7-7-7-7-7-7-7-7-7-7-7-7-7-7-7-5-5-5-5-5-5-5-5-2-2-2-2-2-2-2-2-|
                               x6
e|-------------|
b|--7-7--------|
g|--7-7--------|
d|--0-0--------|
a|--x-x--------|
e|--7-7--------|
Questions? Comments! Compu2thamax@aol.com
comments
print report bad tab
1 comment total.
0 reply
Rockn_Clay wrote on April 23 2005, 12:00 am

im pretty sure the correct version isn't as complicated as that

I want to post or [tab]
guest
You may want to rate the tab now too:
select rating
Please do not post tabs as comments. Select "correction" instead!