Oops, an error
Loading. Please wait.

Somebody Told Me Bass Tab

version 5
5,638 views 1 this week
no commentswrite comment
1 2 3 4 5
please rate
add to favorites
launch autoscroll
font size
0
reset
guitar tuner
Tab Pro tools
  • play this tab
  • loop segment
  • change instrument
  • show fretboard
  • metronome
×
Best way to learn
"Somebody Told Me"
Autoscroll
slow
fast
+/-
esc
set tempo
stop
Contributor
Tabbed By : jaronthebassist

                            Somebody Told Me                               


                                                                The Killers
Bass



      W                   W                   W                 
G||--------------------|-------------------|-------------------|
D||--------------------|-------------------|-------------------|
A||--13----------------|--L----------------|--L----------------|
E||--------------------|-------------------|-------------------|


   Q     E   E  H            E   E   E   E   E   E   E   E   
-------------------------|------15--15------13--13----------|
--------15---------------|--------------------------13--16--|
---L--------13-----------|--13----------13------------------|
-------------------------|----------------------------------|


  E   E   E   E   E   E   E   E      E   E   H.            
---------------------------------|------15--15------------|
--L--16--16------15--15--15------|------------------------|
-------------13--------------16--|--13--------------------|
---------------------------------|------------------------|


  Q     E  E  H            E   E   E   E   E   Q     E   
--L--------------------|--------------------------------|
-----------------------|--13--13--13--13------------16--|
-------13--------------|------------------16--16--------|
-----------------------|--------------------------------|


  E   E   E   E   E   E   E   E      E   E   H.            
---------------------------------|------15--15------------|
--L--16--16--15--16--16--16--15--|------------------------|
---------------------------------|--13--------------------|
---------------------------------|------------------------|


  W                   E  E  E  E  E  E  Q       H.           E  E   
--L----------------|-------------------------|---------------------|
-------------------|-------------------------|---------------------|
-------------------|-------------------------|---------------------|
-------------------|--6--6--6--6--6--6--6----|--L------------L--4--|


  E  E  E  E  E  E  Q       H.           Q       E  E  E  E  E  E  E  E   
-------------------------|--------------------|--8--8--------8--8--------|
-------------------------|--------------------|-----------------------4--|
-------------------------|--------------------|--------6--6--------6-----|
--6--6--6--6--6--6--6----|--L------------6----|--------------------------|


  E  E  E  E  E  E  E  E     E  E  E  E  E  E  E  E   
--------------------------|--------------------------|
--L--4--4--3--4--4--4--3--|--------------------------|
--------------------------|--------------------------|
--------------------------|--6--6--6--6--6--6--6--6--|


  E  E  E  E  E  E  Q       E  E  E  E  E  E  E  E   
-------------------------|--------------------------|
-----------------6--8----|--------------------------|
-------------------------|--------------------------|
--6--6--6--6--6----------|--6--6--6--6--6--6--6--6--|


  E  E  E  E  E  E  E  E     E  E  E  E  E  E  E  E   
--------------------------|--------------------------|
--------------------------|--------------------------|
--------------------------|--------------------------|
--6--6--6--6--6--4--6--4--|--6--6--6--6--6--6--6--6--|


  E  E  E  E  E  E  E  E     E  E  E  E  E  E  E  E   
--------------------------|--8--8--------------------|
--------------------6--6--|-----------------------4--|
--------3--3--4--4--------|--------6--6--6--6--6-----|
--6--6--------------------|--------------------------|


  E  E  E  E  E  E  E  E     E  E  E  E  E  E  E  E   
--------------------------|--------------------------|
--L--4--4--3--4--4--4--3--|--------------------------|
--------------------------|--------------------------|
--------------------------|--6--6--6--6--6--6--6--6--|


  E  E  E  E  E  E  Q       E  E  E  E  E  E  E  E   
-------------------------|--------------------------|
-----------------6--8----|--------------------------|
-------------------------|--------------------------|
--6--6--6--6--6----------|--6--6--6--6--6--6--6--6--|


  E  E  E  E  E  E  E  E     E  E  E  E  E  E  E  E   
--------------------------|--------------------------|
--------------------------|--------------------------|
--------3--3--4--4--3--3--|--------------------------|
--6--6--------------------|--2--2--2--2--2--2--2--2--|


  E  E  E  E  E  E  E  E     E  E  E  E  E  E  E  E   
--------------------------|--------------------------|
--------------------------|--------------------------|
--------------------------|--------------------------|
--4--4--4--4--4--4--4--4--|--6--6--6--4--6--6--6--4--|


  E  S S E  E  E  E  Q       E  E  E  E  E  E  E  E   
--------------------------|--------------------------|
-----6-7-8--6--8--6--8----|--------------------------|
--------------------------|--------------------------|
--6-----------------------|--2--2--2--2--2--2--2--2--|


  E  E  E  E  E  E  E  E     E  E  E  E  E  E  E  E   
--------------------------|--------------------------|
--------------------------|--------------------------|
--------------------------|--------------------------|
--2--2--2--2--2--2--2--2--|--4--4--4--4--4--4--4--4--|


  E  E  H        E  E     E  E  E  E  E   Q     E   
-----------------------|-----------8-----10\-------|
-----------------------|---------------------------|
-----------------------|---------------------------|
--4-----4-----------4--|--6--6------------------1--|


  E  E  E   E  E  Q     E     E  E  E  E  E  Q     E   
-----------10-----8\-------|-----------6-----8\-------|
---------------------------|--------------------------|
---------------------------|--------------------------|
--2--2------------------2--|--4--4--------------------|


  E  E  E  E  E  Q    E     E  E  E  E  E   Q     E   
-----------6-----5-------|-----------8-----10\-------|
-------------------------|-----8---------------------|
-------------------------|------------------------4--|
--1--1----------------4--|--6------------------------|


  E  E  E   E  E  Q     E     E  E  E  E  E  E  Q     
-----------10-----8\-------|-----------6-----8-------|
---------------------------|-------------------------|
---------------------------|-------------------------|
--2--2------------------2--|--4--4-------------------|


   E   E   E   E   E   E   Q       E  E  E  E  E  E  E  E   
------15--15------13--13--------|--------------------------|
--------------------------13----|--------------------------|
--13----------13----------------|--------------------------|
--------------------------------|--6--6--6--6--6--6--6--6--|


  E  E  E  E  E  E  Q       E  E  E  E  E  E  E  E   
-------------------------|--------------------------|
-----------------6--8----|--------------------------|
-------------------------|--------------------------|
--6--6--6--6--6----------|--6--6--6--6--6--6--6--6--|


  E  E  E  E  E  E  E  E     E  E  E  E  E  E  E  E   
--------------------------|--8--8--------------------|
--------------------6--6--|-----------------------4--|
--------3--3--4--4--------|--------6--6--6--6--6-----|
--6--6--------------------|--------------------------|


  E  E  E  E  E  E  E  E     E  E  E  E  E  E  E  E   
--------------------------|--------------------------|
--L--4--4--3--4--4--4--3--|--------------------------|
--------------------------|--------------------------|
--------------------------|--6--6--6--6--6--6--6--6--|


  E  E  E  E  E  E  E  E     E  E  E  E  E  E  E  E   
--------------------------|--------------------------|
--------------------------|--------------------------|
--------------------------|--------------------------|
--6--6--6--6--6--4--6--4--|--6--6--6--6--6--6--6--6--|


  E  E  E  E  E  E  E  E     E  E  E  E  E  E  E  E   
--------------------------|--------------------------|
--------------------------|--------------------------|
--------3--3--4--4--3--3--|--------------------------|
--6--6--------------------|--2--2--2--2--2--2--2--2--|


  E  E  E  E  E  E  E  E     E  E  E  E  E  E  E  E   
--------------------------|--------------------------|
--------------------------|--------------------------|
--------------------------|--------------------------|
--4--4--4--4--4--4--4--4--|--6--6--6--4--6--6--6--4--|


  E  S S E  E  E  E  Q       E  E  E  E  E  E  E  E   
--------------------------|--------------------------|
-----6-7-8--6--8--6--8----|--------------------------|
--------------------------|--------------------------|
--6-----------------------|--2--2--2--2--2--2--2--2--|


  E  E  E  E  E  E  E  E     E  E  E  E  E  E  E  E   
--------------------------|--------------------------|
--------------------------|--------------------------|
--------------------------|--------------------------|
--2--2--2--2--2--2--2--2--|--4--4--4--4--4--4--4--4--|


  E  E  H        E  E     E  E  E  E  E   Q     E   
-----------------------|-----------8-----10\-------|
-----------------------|---------------------------|
-----------------------|---------------------------|
--4-----4-----------4--|--6--6------------------1--|


  E  E  E   E  E  Q     E     E  E  E  E  E  Q     E   
-----------10-----8\-------|-----------6-----8\-------|
---------------------------|--------------------------|
---------------------------|--------------------------|
--2--2------------------2--|--4--4--------------------|


  E  E  E  E  E  Q    E     E  E  E  E  E   Q     E   
-----------6-----5-------|-----------8-----10\-------|
-------------------------|-----8---------------------|
-------------------------|------------------------4--|
--1--1----------------4--|--6------------------------|


  E  E  E   E  E  Q     E     E  E  E  E  E  Q     E   
-----------10-----8\-------|-----------6-----8\-------|
---------------------------|--------------------------|
---------------------------|--------------------------|
--2--2------------------2--|--4--4--------------------|


  E  E  E  E  E  Q    E     W                   W                 
-----------6-----5-------|--6----------------|--8----------------|
----------------------6--|-------------------|-------------------|
-------------------------|-------------------|-------------------|
--1--1-------------------|-------------------|-------------------|


  H.           E  E     W                   Q.     E  E  E  Q     
------------------8--|-------------------|-----------------------|
--8------------L-----|-------------------|-----------------------|
---------------------|--6----------------|--4------4--4-----4----|
---------------------|-------------------|---------------4-------|


  Q.     E  E  E  E  E     Q.     E  H           E  E  E  E  E  S S Q     
------------------------|---------------------|--------------------------|
---------------------4--|--4------4--4--------|--L--4--4--4--4--4-4-6----|
--6------6--6--6--6-----|---------------------|--------------------------|
------------------------|---------------------|--------------------------|


  E  E  Q      E   S  S  Q        E  E  E    E   E   S  S  Q      
-------------------------------|---------------------------------|
--8--8--8s----10--11-11-11\----|--6--6--6s--10--10--11-11-11\----|
-------------------------------|---------------------------------|
-------------------------------|---------------------------------|


  E  E  E    E   E   S  S  Q       E  E  E  E  E  E  E  E   
--------------------------------|--------------------------|
--5--5--5s--12--12--12-12-11----|--------------------------|
--------------------------------|--9--9--9--9--9--9--9--9--|
--------------------------------|--------------------------|


  E  E  E  E  E  E  E  E     E  E  E  E  E  E  E  E   
--------------------------|--------------------------|
--------------------------|--------------------------|
--8--8--8--8--8--8--8--8--|--6--6--6--6--6--6--6--6--|
--------------------------|--------------------------|


  E  E  H        E  E       E  E  E  E  E   Q     E   
-----------------------||------------8-----10\-------|
-----------------------||*---------------------------|
--6-----6--------------||*---------------------------|
--------------------4--||---6--6------------------1--|


  E  E  E   E  E  Q     E     E  E  E  E  E  Q     E   
-----------10-----8\-------|-----------6-----8\-------|
---------------------------|--------------------------|
---------------------------|--------------------------|
--2--2------------------2--|--4--4--------------------|


  E  E  E  E  E  Q    E     E  E  E  E  E   Q     E   
-----------6-----5-------|-----------8-----10\-------|
-------------------------|-----8---------------------|
-------------------------|------------------------4--|
--1--1----------------4--|--6------------------------|


  E  E  E   E  E  Q     E     E  E  E  E  E  Q     E   
-----------10-----8\-------|-----------6-----8\-------|
---------------------------|--------------------------|
---------------------------|--------------------------|
--2--2------------------2--|--4--4--------------------|


  E  E  E  E  E  Q    E   3x  E  E  H.             
-----------6-----5--------||---------------------||
----------------------6--*||---------------------||
-------------------------*||---------------------||
--1--1--------------------||--6--6---------------||




Duration Legend
---------------
W - whole
H - half
Q - quarter
E - 8th
S - 16th
T - 32nd
X - 64th
. - note dotted
|-n-|  - n-tuplets


Tablature Legend
----------------
L - tied note
x - dead note
g - grace note
(n) - ghost note
> - accentuded note
NH - natural harmonic
AH - artificial harmonic
TH - tapped harmonic
SH - semi harmonic
PH - pitch harmonic
h - hammer on
p - pull off
b - bend
br - bendRelease
pb - preBend
pbr - preBendRelease
brb - bendReleaseBend
\n/ - tremolo bar dip
\n - tremolo bar dive
-/n - tremolo bar Release up
/n\ - tremolo bar inverted dip
/n - tremolo bar return
-\n - tremolo bar Release down
S - shift slide
s - legato slide
/ -  slide into from below or out of upwards
\ -  slide into from above or out of downwards
~ - vibrato
W - wide vibrato
tr - trill
TP - tremolo picking
T - tapping
S - slap
P - pop
< - fade in
^ - brush up
v - brush down
comments
We did not receive enough feedback on this tab! Please rate:
print report bad tab
1 2 3 4 5
I want to post or [tab]
guest
You may want to rate the tab now too:
select rating
Please do not post tabs as comments. Select "correction" instead!