Oops, an error
Loading. Please wait.

Somebody Told Me Tab

version 5
17,539 views 1 this week
no commentswrite comment
1 2 3 4 5
worth learning
x 6
add to favorites
launch autoscroll
font size
0
reset
how to read this tab
guitar tuner
Tab Pro tools
  • play this tab
  • loop segment
  • change instrument
  • show fretboard
  • metronome
×
Best way to learn
"Somebody Told Me"
Autoscroll
slow
fast
+/-
esc
set tempo
stop
Intro:


  C#5                     D#5    E#5  F#5  X2
|-------------------------------------------|
|-------------------------------------------|
|-6-----------------------8------10----11---|
|-6-----------------------8------10----11---|
|-4-----------------------6-------8-----9---|
|-------------------------------------------|

F5        F#5   G#5   F#5   F5    F#5   G#5  G#5
|---------------------------------------------------|
|---------------------------------------------------|
|-10--------11----13----11----10----11----13---13---|
|-10--------11----13----11----10----11----13---13---|
|--8---------9----11-----9-----8-----9----11---11---|
|---------------------------------------------------|

Verse:
Bbm         Gb           Ab        F
Breaking my back just to know your name 
Bbm         Gb           Ab        F           Bbm    Gb    Ab   F
Seventeen tracks and I've had it with this game 

Bbm         Gb           Ab        F
I'm breaking my back just to know your name 
Bbm         Gb           Ab        F
But heaven ain't close in a place like this 
Bbm         Gb           Ab        F          Bbm    Gb    Ab   F
Anything goes but don't blink, you might miss 

Bbm         Gb           Ab        F
'Cause heaven ain't close in a place like this 
Bbm         Gb           Ab        F
I said heaven ain't close in a place like this 
Bbm         Gb           Ab        F
Bring it back down, bring it back down tonight 
Bbm         Gb           Ab        F
Never thought I'd let a rumour ruin my moonlight 

              Bbm             Gb
Somebody told me you had a boyfriend 
                      Ab
Who looked like a girlfriend 
              F            Bbm
That I had in February of last year 
              Gb                     Ab        F                        
It's not confidential, I've got potential 

Ready let's roll onto something new 
Takin' it's toll and I'm leaving without you 
Ready let's roll onto something new
Anything goes but don't blink, you might miss 
'Cause heaven ain't close in a place like this 
I said heaven ain't close in a place like this
Bring it back down, bring it back down tonight 
Never thought I'd let a rumour ruin my moonlight 

Well, somebody told me you had a boyfriend 
Who looked like a girlfriend 
That I had in February of last year 
It's not confidential, I've got potential a rushin' a rushin' around 


(the following tab is this part)

                                                           X2
|-----------------------------------------------------------|
|-----------------------------------------------------------|
|-8-8-8-6-----8-8-8-6-----8-8-8-6-6---6---8-8-8-6-6---6-----|
|-----------------------------------8---8-----------8---8---|
|-----------------------------------------------------------|
|-----------------------------------------------------------|

                  X6
|-------------------|
|-------------------|
|-------------------|
|-8-8-8-6-6---6-----|
|-----------8---8---|
|-------------------|

Pace yourself for me 
I said maybe, baby, please 
But I just don't know now 
When all I wanna do is try 

Somebody told me you had a boyfriend 
Who looked like a girlfriend 
That I had in February of last year 
It's not confidential, I've got potential a rushin' a rushin' around 

Somebody told me you had a boyfriend 
Who looked like a girlfriend 
That I had in February of last year 
It's not confidential, I've got potential a rushin' a rushin' around
 





Well I think that's all the song. Good luck And have FuN !!!!!
comments
print report bad tab
I want to post or [tab]
guest
You may want to rate the tab now too:
select rating
Please do not post tabs as comments. Select "correction" instead!