Oops, an error
Loading. Please wait.

Somebody Told Me Tab

version 7
4,216 views 1 this week
no commentswrite comment
1 2 3 4 5
please rate
add to favorites
launch autoscroll
font size
0
reset
how to read this tab
guitar tuner
Tab Pro tools
  • play this tab
  • loop segment
  • change instrument
  • show fretboard
  • metronome
×
Best way to learn
"Somebody Told Me"
Autoscroll
slow
fast
+/-
esc
set tempo
stop
Contributor
Difficulty
novice
Intro
e|----------------|---------------|-----------------------|-----------------------|
B|----------------|---------------|-----------------------|-----------------------|
G|----------------|---------------|-----------------------|-----------------------|
D|-6-6-6-6-6-6-6-6|8-8-8-8-8-8-8-8|10-10-10-10-10-10-10-10|11-11-11-11-11-11-11-11|
A|-8-8-8-8-8-8-8-8|8-8-8-8-8-8-8-8|8--8--8--8--8--8--8--8-|8--8--8--8--8--8--8--8-|
E|----------------|---------------|-----------------------|-----------------------|(x2)

e|-------------------------|------------------------|------------------------|------------------------|
B|-------------------------|------------------------|------------------------|------------------------|
G|-------------------------|------------------------|------------------------|------------------------|
D|-10-10-10-10-11-11-11-11-|13-13-13-13-11-11-11-11-|10-10-10-10-11-11-11-11-|10-10-10-10-10-10-10-10-|
A|-8--8--8--8--8--8--8--8--|8--8--8--8--8--8--8--8--|8--8--8--8--8--8--8--8--|8--8--8--8--8--8--8--8--|
E|-------------------------|------------------------|------------------------|------------------------|

Verse:
(Breaking my back just to know your name. 17 tracks and I've had it with this game)
e|-----------------|
B|-----------------|
G|-----------------|
D|-8-8-8-8-8-8-8-8-|
A|-8-8-8-8-8-8-8-8-|
E|-6-6-6-6-6-6-6-6-|(x4)
   * * * * * * * *

e|-----------------|-----------------|
B|-----------------|-----------------|
G|-----------------|-----------------|
D|-4-4-4-4-4-4-4-4-|-6-6-6-6-6-6-6-6-|
A|-4-4-4-4-4-4-4-4-|-6-6-6-6-6-6-6-6-|
E|-2-2-2-2-2-2-2-2-|-4-4-4-4-4-4-4-4-|

(Breaking my back just to know your name. But heaven ain't close in a place like this. 
goes but don't blink you might miss)
e|-----------------|
B|-----------------|
G|-----------------|
D|-8-8-8-8-8-8-8-8-|
A|-8-8-8-8-8-8-8-8-|
E|-6-6-6-6-6-6-6-6-|(x6)
   * * * * * * * *

e|-----------------|-----------------|
B|-----------------|-----------------|
G|-----------------|-----------------|
D|-4-4-4-4-4-4-4-4-|-6-6-6-6-6-6-6-6-|
A|-4-4-4-4-4-4-4-4-|-6-6-6-6-6-6-6-6-|
E|-2-2-2-2-2-2-2-2-|-4-4-4-4-4-4-4-4-|

(Cause Heaven ain't close in a place like this, I said Heaven ain't close in a place 
this.)
e|-----------------|
B|-----------------|
G|-----------------|
D|-8-8-8-8-8-8-8-8-|
A|-8-8-8-8-8-8-8-8-|
E|-6-6-6-6-6-6-6-6-|(x4)
   * * * * * * * *

(Bring it back down, bring it back down tonight)
e|-----------------|-----------------|-----------------|-----------------|
B|-----------------|-----------------|-----------------|-----------------|
G|-----------------|-----------------|-----------------|-----------------|
D|-4-4-4-4-4-4-4-4-|-6-6-6-6-6-6-6-6-|-8-8-8-8-8-8-8-8-|-8-8-8-8-8-8-8-8-|
A|-4-4-4-4-4-4-4-4-|-6-6-6-6-6-6-6-6-|-8-8-8-8-8-8-8-8-|-8-8-8-8-8-8-8-8-|
E|-2-2-2-2-2-2-2-2-|-4-4-4-4-4-4-4-4-|-6-6-6-6-6-6-6-6-|-6-6-6-6-6-6-6-6-|
   * * * * * * * *   * * * * * * * *   * * * * * * * *   * * * * * * * *
(Never thought I'd let a rumor ruin my moonlight)
e|-----------------|-----------------|-----------------|-----------------|
B|-----------------|-----------------|-----------------|-----------------|
G|-----------------|-----------------|-----------------|-----------------|
D|-4-4-4-4-4-4-4-4-|-4-4-4-4-4-4-4-4-|-6-6-6-6-6-6-6-6-|-6---6-----------|
A|-4-4-4-4-4-4-4-4-|-4-4-4-4-4-4-4-4-|-6-6-6-6-6-6-6-6-|-6---6-----------|
E|-2-2-2-2-2-2-2-2-|-2-2-2-2-2-2-2-2-|-4-4-4-4-4-4-4-4-|-4---4-(let ring)|
   * * * * * * * *   * * * * * * * *   * * * * * * * *

Chorus:
(Somebody told me you had a boyfriend that looked like a girlfriend that I had in 
of last year)
e|-----------------|----------------|----------------|----------------|
B|-----------------|----------------|----------------|----------------|
G|-----------------|----------------|----------------|----------------|
D|-8-8-8-8-8-8-8-8-|4-4-4-4-4-4-4-4-|6-6-6-6-6-6-6-6-|3-3-3-3-3-3-3-3-|
A|-8-8-8-8-8-8-8-8-|4-4-4-4-4-4-4-4-|6-6-6-6-6-6-6-6-|3-3-3-3-3-3-3-3-|
E|-6-6-6-6-6-6-6-6-|2-2-2-2-2-2-2-2-|4-4-4-4-4-4-4-4-|1-1-1-1-1-1-1-1-|

(It's not confidential, well I got potential)
e|-----------------|----------------|----------------|----------------|
B|-----------------|----------------|----------------|----------------|
G|-----------------|----------------|----------------|----------------|
D|-8-8-8-8-8-8-8-8-|4-4-4-4-4-4-4-4-|6-6-6-6-6-6-6-6-|-3-3-3-3-3-3-3-3|
A|-8-8-8-8-8-8-8-8-|4-4-4-4-4-4-4-4-|6-6-6-6-6-6-6-6-|-3-3-3-3-3-3-3-3|
E|-6-6-6-6-6-6-6-6-|2-2-2-2-2-2-2-2-|4-4-4-4-4-4-4-4-|-1-1-1-1-1-1-1-1|
                                                     |Skip first TIme-|

|-----------------|
|---11-11---9-9---|
|---------------8-|
|-8-------8-------|
|-----------------|
|-----------------|(first time only)

Verse 2(Same as Verse 1):

Verse:
(Ready, let's roll onto something new. Taking it's toll and I'm leaving without you)
e|-----------------|
B|-----------------|
G|-----------------|
D|-8-8-8-8-8-8-8-8-|
A|-8-8-8-8-8-8-8-8-|
E|-6-6-6-6-6-6-6-6-|(x4)
   * * * * * * * *

e|-----------------|-----------------|
B|-----------------|-----------------|
G|-----------------|-----------------|
D|-4-4-4-4-4-4-4-4-|-6-6-6-6-6-6-6-6-|
A|-4-4-4-4-4-4-4-4-|-6-6-6-6-6-6-6-6-|
E|-2-2-2-2-2-2-2-2-|-4-4-4-4-4-4-4-4-|

(Ready let's roll onto something new. But heaven ain't close in a place like this. 
goes but don't blink you might miss)
e|-----------------|
B|-----------------|
G|-----------------|
D|-8-8-8-8-8-8-8-8-|
A|-8-8-8-8-8-8-8-8-|
E|-6-6-6-6-6-6-6-6-|(x6)
   * * * * * * * *

e|-----------------|-----------------|
B|-----------------|-----------------|
G|-----------------|-----------------|
D|-4-4-4-4-4-4-4-4-|-6-6-6-6-6-6-6-6-|
A|-4-4-4-4-4-4-4-4-|-6-6-6-6-6-6-6-6-|
E|-2-2-2-2-2-2-2-2-|-4-4-4-4-4-4-4-4-|

(Cause Heaven ain't close in a place like this, I said Heaven ain't close in a place 
this.)
e|-----------------|
B|-----------------|
G|-----------------|
D|-8-8-8-8-8-8-8-8-|
A|-8-8-8-8-8-8-8-8-|
E|-6-6-6-6-6-6-6-6-|(x4)
   * * * * * * * *

(Bring it back down, bring it back down tonight)
e|-----------------|-----------------|-----------------|-----------------|
B|-----------------|-----------------|-----------------|-----------------|
G|-----------------|-----------------|-----------------|-----------------|
D|-4-4-4-4-4-4-4-4-|-6-6-6-6-6-6-6-6-|-8-8-8-8-8-8-8-8-|-8-8-8-8-8-8-8-8-|
A|-4-4-4-4-4-4-4-4-|-6-6-6-6-6-6-6-6-|-8-8-8-8-8-8-8-8-|-8-8-8-8-8-8-8-8-|
E|-2-2-2-2-2-2-2-2-|-4-4-4-4-4-4-4-4-|-6-6-6-6-6-6-6-6-|-6-6-6-6-6-6-6-6-|
   * * * * * * * *   * * * * * * * *   * * * * * * * *   * * * * * * * *

(Never thought I'd let a rumor ruin my moonlight)
e|-----------------|-----------------|-----------------|-----------------|
B|-----------------|-----------------|-----------------|-----------------|
G|-----------------|-----------------|-----------------|-----------------|
D|-4-4-4-4-4-4-4-4-|-4-4-4-4-4-4-4-4-|-6-6-6-6-6-6-6-6-|-6---6-----------|
A|-4-4-4-4-4-4-4-4-|-4-4-4-4-4-4-4-4-|-6-6-6-6-6-6-6-6-|-6---6-----------|
E|-2-2-2-2-2-2-2-2-|-2-2-2-2-2-2-2-2-|-4-4-4-4-4-4-4-4-|-4---4-(let ring)|
   * * * * * * * *   * * * * * * * *   * * * * * * * *
(Repeat chorus)

Bridge:
(pace your self for me)
e|-----------------|----------------|---------------|---------------|
B|-----------------|----------------|---------------|---------------|
G|-----------------|----------------|---------------|---------------|
D|-4-4-4-4-4-4-4-4-|6-6-6-6-6-6-6-6-|8-8-8-8-8-8-8-8|8-8-8-8-8-8-8-8|
A|-4-4-4-4-4-4-4-4-|6-6-6-6-6-6-6-6-|8-8-8-8-8-8-8-8|8-8-8-8-8-8-8-8|
E|-2-2-2-2-2-2-2-2-|4-4-4-4-4-4-4-4-|6-6-6-6-6-6-6-6|8-8-8-8-8-8-8-8|

(I said maybe, baby please)
e|-----------------|----------------|---------------|---------------|
B|-----------------|----------------|---------------|---------------|
G|-----------------|----------------|---------------|---------------|
D|-4-4-4-4-4-4-4-4-|6-6-6-6-6-6-6-6-|8-8-8-8-8-8-8-8|8-8-8-8-8-8-8-8|
A|-4-4-4-4-4-4-4-4-|6-6-6-6-6-6-6-6-|8-8-8-8-8-8-8-8|8-8-8-8-8-8-8-8|
E|-2-2-2-2-2-2-2-2-|4-4-4-4-4-4-4-4-|6-6-6-6-6-6-6-6|8-8-8-8-8-8-8-8|

(I just don't know now)
e|-----------------|----------------|---------------|---------------|
B|-----------------|----------------|---------------|---------------|
G|-----------------|----------------|---------------|---------------|
D|-4-4-4-4-4-4-4-4-|6-6-6-6-6-6-6-6-|8-8-8-8-8-8-8-8|8-8-8-8-8-8-8-8|
A|-4-4-4-4-4-4-4-4-|6-6-6-6-6-6-6-6-|8-8-8-8-8-8-8-8|8-8-8-8-8-8-8-8|
E|-2-2-2-2-2-2-2-2-|4-4-4-4-4-4-4-4-|6-6-6-6-6-6-6-6|8-8-8-8-8-8-8-8|

(All I wanna do is try)
e|-----------------|----------------|----------------|
B|-----------------|----------------|----------------|
G|-----------------|----------------|----------------|
D|-4-4-4-4-4-4-4-4-|6-6-6-6-6-6-6-6-|6---6-----------|
A|-4-4-4-4-4-4-4-4-|6-6-6-6-6-6-6-6-|6---6-----------|
E|-2-2-2-2-2-2-2-2-|4-4-4-4-4-4-4-4-|4---4-(let ring)|

(repeat Chorus 3x)

Outro:
e|-----|
B|-----|
G|-----|
D|-6-6-|
A|-6-6-|
E|-4-4-|
comments
We did not receive enough feedback on this tab! Please rate:
print report bad tab
1 2 3 4 5
I want to post or [tab]
guest
You may want to rate the tab now too:
select rating
Please do not post tabs as comments. Select "correction" instead!