Oops, an error
Loading. Please wait.

Spaceman Acoustic Tab

version 1
version 1

Whole song

Interactive

929 views 1 this week
no commentswrite comment
1 2 3 4 5
please rate
add to favorites
launch autoscroll
font size
0
reset
how to read this tab
guitar tuner
Tab Pro tools
  • play this tab
  • loop segment
  • change instrument
  • show fretboard
  • metronome
Autoscroll
slow
fast
+/-
esc
set tempo
stop
Difficulty
intermediate
THE KILLERS - SPACEMAN
Tabbed By PSTAN

Did an arrangement of the song for 2 guitars.

LEAD GUITAR parts are tabbed out. (Rhythm guitar just plays the chords specified above)

INTRO
	E     C#    E  A   A    C#   G#     B
E|--------------------------------------------------------------------------|
B|--------------------------------------------------------------------------|
G|------13-13-13-13-13-14-11-11-11-13-8-8-8-11------------------------------|
D|--------------------------------------------------------------------------|
A|------11-11-11-11-11-12-9--9--9--11-6-6-6-9-------------------------------|
E|--------------------------------------------------------------------------|


VERSE
    E		  B		  C#		   B
E|--------------------------------------------------------------------------|
B|--------------------------------------------------------------------------|
G|--------------------------------------------------------------------------|
D|-------9-9-9-7------------------------------------------------------7-7-7-|
A|-7-7-7----------------9-9-9-7--------11-11-11-9--------9-9-9-7-----------6|
E|----------------7-7-7----------9-9-9-------------7-7-7---------7-7-7------|


PRECHORUS				TURNAROUND
    A	B   C#  G#			B
E|--0---0---0---0-----------------------0-----5-----------------------------|
B|--0---0---0---0-----------------------0-----4-----------------------------|
G|--2---4---6---X--play four times------4-----4-----------------------------|
D|--2---4---6---6-----------------------4-----4-----------------------------|
A|--0---2---4---6-----------------------2-----x-----------------------------|
E|--X---X---X---4-----------------------x-----x-----------------------------|


CHORUS
    E C# E A A C# G# B


VERSE 2
    E		  B		  C#		   B
E|--------------------------------------------------------------------------|
B|--------------------------------------------------------------------------|
G|--------------------------------------------------------------------------|
D|-------9-9-9-7------------------------------------------------------7-7-7-|
A|-7-7-7----------------9-9-9-7--------11-11-11-9--------9-9-9-7-----------6|
E|----------------7-7-7----------9-9-9-------------7-7-7---------7-7-7------|

    E		     B		   C#		 B
E|-------------------------------------------------------------------------|
B|-------------------------------------------------------------------------|
G|-------------------8-8-8-6--6--------------------------------------------|
D|--10-10-10-9--9-7-------------9--6-6-6---------7-7-7-6--6-4--------------|
A|---------------------------------------9--9-7----------------------------|
E|-------------------------------------------------------------------------|


PRECHORUS 2				TURNAROUND
    A	B   C#  G#			B
E|--0---0---0---0-----------------------0-----5--------------------------|
B|--0---0---0---0-----------------------0-----4--------------------------|
G|--2---4---6---X--play four times------4-----4--------------------------|
D|--2---4---6---6-----------------------4-----4--------------------------|
A|--0---2---4---6-----------------------2-----x--------------------------|
E|--X---X---X---4-----------------------x-----x--------------------------|

OR ALTERNATIVELY, PLAY

    A	B   C#  G#	   A   B    C#	G#
E|------------------------------------------------------------------------|
B|--------------10--9--7--------------------------------------------------|
G|--9--6/9--6/9------------9--6/9--6/9--6--8--4---------------------------|
D|------------------------------------------------------------------------|
A|------------------------------------------------------------------------|
E|------------------------------------------------------------------------|

    A   B   C#	G#  B  B7(turnaround)
E|------------------------------------------------------------------------|
B|----------9-------------------------------------------------------------|
G|--9--11-------8---9--10-9-7-9-------------------------------------------|
D|------------------------------------------------------------------------|
A|------------------------------------------------------------------------|
E|------------------------------------------------------------------------|


CHORUS
    E C# E A A C# G# B


BRIDGE
    C#
E|------------------------------------------------------------------------|
B|------------------------------------------------------------------------|
G|--------------------------------------------repeat and improvise -------|
D|------------------------------------2-4-6-------------------------------|
A|---4---2-2--4--------2---4---2-2--4-------------------------------------|
E|------4-4-----4-4-4-4-------4-4-----------------------------------------|

		     A   G#  C#  B   E   F#  A   B
E|-------------------0---4---4---2---0---2---0---2------------------------|
B|-------------------0---4---5---4---0---2---2---4------------------------|
G|-------------------2---4---6---4---1---2---2---4------------------------|
D|-------------------2---6---6---4---2---4---2---4------------------------|
A|---4---2-2---------0---6---4---2---2---4---0---2------------------------|
E|------4-4---5--7---X---4---X---X---0---2---X---X------------------------|


CHORUS
    E C# E A A C# G# B

SOLO + OUTRO

    E                   C#			E	A
E|--12-12-11-11-9-9------------------------------------------------------|
B|------------------9-9-12-12-9-12-12-12-9-9-----------------------------|
G|-------------------------------------------two times-------------------|
D|-----------------------------------------------------------------------|
A|-----------------------------------------------------------------------|
E|-----------------------------------------------------------------------|

    A			  C#                G#              B
E|---------------------------------------------------------7-7-7-7-7-7-7-7-|
B|-10-10-9-9---------------------------9-9-8-8-8-8-8-8-8-8-----------------|
G|-----------11-11-------9-9----9-9-11-------------------------------------|
D|-----------------11-11-----11--------------------------------------------|
A|-------------------------------------------------------------------------|
E|-------------------------------------------------------------------------|

Play twice.

The End.
comments
We did not receive enough feedback on this tab! Please rate:
print report bad tab
1 2 3 4 5
I want to post or [tab]
guest
You may want to rate the tab now too:
select rating
Please do not post tabs as comments. Select "correction" instead!