Oops, an error
Loading. Please wait.

Spaceman Bass Tab

version 1
version 1

Whole song

Interactive

8,615 views 3 this week
1 commentread comment
1 2 3 4 5
worth learning
x 1
add to favorites
launch autoscroll
font size
0
reset
guitar tuner
Tab Pro tools
  • play this tab
  • loop segment
  • change instrument
  • show fretboard
  • metronome
Autoscroll
slow
fast
+/-
esc
set tempo
stop
Contributor
Difficulty
novice
Intro is same as chorus

Verse
G|-------------------------------------------------------|
D|-------------9-6-------------9-6-----------------------|
A|7777777777777-7-7777777777777-7-22222244444422222222222|
E|-------------------------------------------------------|

Pre-Chorus
G|------------------------------------------------------------------|
D|7-7-777------------------6-666-66-7-7-777-------------------------|
A|--------2-222-22-4-4-4444-----------------2-222-22-4-4-444--------|
E|----------------------------------------------------------44444444|

G|----------------------------------------------------------------|
D|77777777--------------------------------------------------------|
A|--------2222222244444444--------22222222222222222222222222222222|
E|------------------------44444444--------------------------------|

Chorus
G|----------------------------------------------------------------|
D|----------------------------------------------------------------|
A|7777777744444444777777770000000000000000444444442222222222222222|
E|----------------------------------------------------------------|

Break
G|------------------------------|
D|------------------------2-4-6\|
A|4--2--2-4-7-9--4--2---2-------|
E|--4-44-----------4-44---------|

Enjoy
Great song, I cant wait for the new album!!!!
comments
We did not receive enough feedback on this tab! Please rate:
print report bad tab
1 2 3 4 5
1 comment total.
0 reply
guitarboy48 wrote on November 5 2008, 07:03 pm

The pre-chorus and chorus are good but the break and verse are not completely right.

I want to post or [tab]
guest
You may want to rate the tab now too:
select rating
Please do not post tabs as comments. Select "correction" instead!