Oops, an error
Loading. Please wait.

Spaceman Tab

version 1
version 1

Intro

Whole song

Interactive

29,707 views 12 this week
3 commentsread comments
1 2 3 4 5
accurate
x 17
add to favorites
launch autoscroll
font size
0
reset
how to read this tab
guitar tuner
Tab Pro tools
  • play this tab
  • loop segment
  • change instrument
  • show fretboard
  • metronome
×
Best way to learn
"Spaceman"
Autoscroll
slow
fast
+/-
esc
set tempo
stop
The Killers
Day and Age
Spaceman (Riff)

e|---------------------------------|
b|------------------------------9--|
g|----9--9--9------9--9--9--11-----|
d|-------------11------------------|
a|---------------------------------|
E|---------------------------------|


e|-------------------------------------|
b|--------------------------10--9------|
g|----9--9--9------9--9--9---------11--|
d|-------------11----------------------|
a|-------------------------------------|
E|-------------------------------------|

e|--------------------------------|
b|------------------------------9-|
g|----9--9--9------9--9--9--11----|
d|-------------11-----------------|
a|--------------------------------|
E|--------------------------------|

e|---------------------------------||
b|------------------------------7--||
g|----8--8--8------8--8--8--9------||
d|-------------9-------------------||
a|---------------------------------||
E|---------------------------------||

Just a simple version of the opening (and various other parts) of the new Killers' song 
-Austin
comments
print report bad tab
3 comments total.
+1 reply
RCH15 wrote on December 17 2008, 09:37 pm

Good tab, but you should say what parts exactly that's tabbed out. I know it's the opening "Oh, oh, ohohoh" part. What else?

+2 reply
necriononguitar wrote on February 10 2009, 03:09 pm

nice very well, too short
y didnt u tabbed out the whole song??

not impressed...

+2 reply
GuitarWalker57 wrote on March 5 2009, 03:43 pm

e|-------------------------------------|
b|-------------------------10--9------|
g|----9--9--9--------9--9---------11--|
d|-------------11---------------------|
a|------------------------------------|
E|------------------------------------|

Correction for the second row.
I think one "9" is too much in there.
Still an impressive intro tab.

Combined with this in the verse part, this is the shit!

E--------------------------------------------------------------------
B--------------------------------------------------------------------
G--------------------------------------------------------------------
D---------9-9-7------------------------------------------------------
A--7-7-7----------x4-----------9-9-7-----------11-11-9----------9-9-7
E-----------------------7-7-7-----------9-9-9------------7-7-7-------

E----------------------
B----------------------
G----------------------
D--------7-7-6---------
A----------------------
E--7-7-7---------------

I want to post or [tab]
guest
You may want to rate the tab now too:
select rating
Please do not post tabs as comments. Select "correction" instead!