Oops, an error
Loading. Please wait.

Spaceman Bass Tab

version 2
version 2

Whole song

Interactive

4,007 views 1 this week
1 commentread comment
1 2 3 4 5
accurate
x 1
add to favorites
launch autoscroll
font size
0
reset
guitar tuner
Tab Pro tools
  • play this tab
  • loop segment
  • change instrument
  • show fretboard
  • metronome
Autoscroll
slow
fast
+/-
esc
set tempo
stop
The Killers
Spaceman
Day and Age

I know this isn’t the way he plays it on stage, but this is how I play it, and I think 
sounds good. If you want it how he plays it, transpose most everything up a string.

Intro
G|-----------------------------------------------------------------|
D|-----------------------------------------------------------------|
A|777777774444444477777777----------------44444444-----------------|
E|------------------------5555555555555555--------4444444477777777-|

Wait for Pt. 2 of Verse

Verse
G|---------------------------------------------------------|
D|---------------6-----------------------------------------|
A|777777777777777-7777777777777779-------------------------|
E|---------------------------------77777799999977777777777-|

Pre-Chorus
G|-----------------------------------------------------| x2
D|-----------------------------------------------------|
A|-12-12-121212-14-14-141414-16-16-161616-11-11-111111-|
E|-----------------------------------------------------|

G|-------------------------------------------------------------------|
D|-------------------------------------------------------------------|
A|--------------------------------------------------(14-14-141414x2)-|
E|-5-5-555-7-7-777-8-8-888-9-9-999-7-7-777-7-77-777------------------|

Chorus
G|-----------------------------------------------------------------|
D|-----------------------------------------------------------------|
A|777777774444444477777777----------------44444444-----------------|
E|------------------------5555555555555555--------4444444477777777-|

Verse x2

Pre-Chorus

Chorus x2

Solo:
  P.M*****************************
G|------------------------------------|  x3
D|------------------------------------|
A|--------------------------7-9-11\---|
E|-9--9-7979-4-4-4-49-9-7979----------|

  P.M******************************************(Softly)
G|-----------------------------------------------------------------------|
D|-----------------------------------------------------------------------|
A|--7--7-------79---------------------------------------|--\7~9~12~14~---|
E|-9--7-7-7*7*9---9-9119119-6-4-2-29-9797-4*4*4*-5~-7~-------------------|

Chorus:
G|-----------------------------------------------------------------|  x2
D|-----------------------------------------------------------------|
A|7777777744444444------------------------44444444-----------------|
E|----------------555555554444444477777777--------5555555577777777-|
Chorus to end
G|-----------------------------------------------------------------|
D|-----------------------------------------------------------------|
A|777777774444444477777777----------------44444444-----------------|
E|------------------------5555555555555555--------4444444477777777-|
comments
We did not receive enough feedback on this tab! Please rate:
print report bad tab
1 2 3 4 5
1 comment total.
0 reply
krrz_mckagan wrote on January 22 2009, 06:25 pm

everything sounds good, but I couldn't get the solo part

I want to post or [tab]
guest
You may want to rate the tab now too:
select rating
Please do not post tabs as comments. Select "correction" instead!