Oops, an error
Loading. Please wait.

Spaceman Bass Tab

version 3
version 3

Whole song

Interactive

3,575 views 3 this week
1 commentread comment
1 2 3 4 5
please rate
add to favorites
launch autoscroll
font size
0
reset
guitar tuner
Tab Pro tools
  • play this tab
  • loop segment
  • change instrument
  • show fretboard
  • metronome
×
Best way to learn
"Spaceman"
Autoscroll
slow
fast
+/-
esc
set tempo
stop
I think this is the correct version including the bass solo.

The letters refer to the higher frets (to keep the bars looking neat).  A is fret 10, B 
11, C is 12 and so on.  Hope it isn't too confusing, but that way you can see how the 
are laid out.

Intro (Bass starts with oh, oh, oh...)

G --------|--------|--------|--------|--------|--------|--------|--------|
D --------|--------|--------|--------|--------|--------|--------|--------|
A 77777777|44444444|77777777|--------|44444444|44444444|--------|--------|
E --------|--------|--------|55555555|--------|--------|44444444|77777777|

Verse

G --------|--------|--------|--------|--------|--------|--------|--------|
D --------|--------|--------|------9A|--------|--------|--------|--------|
A 77777777|77777777|77777777|777777--|--------|--------|--------|-------9|
E --------|--------|--------|--------|77777777|99999999|77777777|7777777-|

G --------|--------|--------|--------|--------|--------|--------|--------|
D --------|--------|--------|------9A|--------|--------|--------|--------|
A 77777777|77777777|77777777|777777--|--------|--------|--------|--------|
E --------|--------|--------|--------|77777777|99999999|77777777|77777777|

Chorus

G --------|--------|--------|--------|--------|--------|--------|--------|
D --------|--------|--------|--------|--------|--------|--------|--------|
A CCCCCCCC|EEEEEEEE|GGGGGGGG|BBBBBBBB|CCCCCCCC|EEEEEEEE|GGGGGGGG|AAAAAAAA|
E --------|--------|--------|--------|--------|--------|--------|--------|

G --------|--------|--------|--------|--------|--------|--------|--------|
D --------|--------|--------|--------|--------|--------|--------|--------|
A --------|--------|--------|--------|--------|--------|--------|--------|
E 55555555|77777777|88888888|99999999|77777777|77777777|77777777|77777777|

G --------|--------|--------|--------|--------|--------|--------|--------|
D --------|--------|--------|--------|--------|--------|--------|--------|
A 77777777|44444444|77777777|--------|44444444|44444444|--------|--------|
E --------|--------|--------|55555555|--------|--------|44444444|77777777|

Verse

G --------|--------|--------|--------|--------|--------|--------|--------|
D --------|--------|--------|------9A|--------|--------|--------|--------|
A 77777777|77777777|77777777|777777--|--------|--------|--------|-------9|
E --------|--------|--------|--------|77777777|99999999|77777777|7777777-|

G --------|--------|--------|--------|--------|--------|--------|--------|
D --------|--------|--------|------9A|--------|--------|--------|--------|
A 77777777|77777777|77777777|777777--|--------|--------|--------|--------|
E --------|--------|--------|--------|77777777|99999999|77777777|77777777|

Chorus

G --------|--------|--------|--------|--------|--------|--------|--------|
D --------|--------|--------|--------|--------|--------|--------|--------|
A CCCCCCCC|EEEEEEEE|GGGGGGGG|BBBBBBBB|CCCCCCCC|EEEEEEEE|GGGGGGGG|AAAAAAAA|
E --------|--------|--------|--------|--------|--------|--------|--------|

G --------|--------|--------|--------|--------|--------|--------|--------|
D --------|--------|--------|--------|--------|--------|--------|--------|
A --------|--------|--------|--------|--------|--------|--------|--------|
E 55555555|77777777|88888888|99999999|77777777|77777777|77777777|77777777|

G --------|--------|--------|--------|--------|--------|--------|--------|
D --------|--------|--------|--------|--------|--------|--------|--------|
A 77777777|44444444|77777777|--------|44444444|44444444|--------|--------|
E --------|--------|--------|55555555|--------|--------|44444444|77777777|

Solo

G --------|--------|--------|--------|--------|--------|--------|--------|
D --------|--------|--------|----4-6-|--------|--------|--------|----4-6-|
A 4------4|-------4|4------4|4-7-----|4------4|-------4|4------4|4-7-----|
E --74747-|7474747-|--74747-|--------|--74747-|7474747-|--74747-|--------|

G --------|--------|--------|--------|--------|--------|--------|--------|
D --------|--------|--------|----4-6-|--------|--------|--------|--------|
A 4------4|-------4|4------4|4-7-----|7-7-7-7-|7-747542|4------4|--------|
E --74747-|7474747-|--74747-|--------|---7-7-7|-7------|--74747-|5-4-2-4-|

G --------|--------|--------|--------|--------|--------|--------|--------|
D --------|--------|--------|--------|--------|--------|--------|--------|
A 4------4|-------4|--------|--------|--------|--------|--------|--------|
E --74747-|7474747-|5-------|7-------|--------|--------|--------|--------|

G --------|--------|--------|--------|
D --------|--------|--------|--------|
A --------|--------|--------|--------|
E --------|--------|5-555555|77777777|

Outro

G --------|--------|--------|--------|--------|--------|--------|--------|
D --------|--------|--------|--------|--------|--------|--------|--------|
A 77777777|66666666|--------|--------|--------|--------|--------|--------|
E --------|--------|55555555|44444444|77777777|99999999|55555555|77777777|

G --------|--------|--------|--------|--------|--------|--------|--------|
D --------|--------|--------|--------|--------|--------|--------|--------|
A 77777777|66666666|--------|--------|--------|--------|--------|--------|
E --------|--------|55555555|44444444|77777777|99999999|55555555|77777777|

G --------|--------|--------|--------|--------|--------|--------|--------|
D --------|--------|--------|--------|--------|--------|--------|--------|
A 77777777|44444444|77777777|--------|44444444|44444444|--------|--------|
E --------|--------|--------|55555555|--------|--------|44444444|77777777|

G --------|--------|--------|--------|--------|--------|--------|--------|
D --------|--------|--------|--------|--------|--------|--------|--------|
A 77777777|44444444|77777777|--------|44444444|44444444|--------|--------|
E --------|--------|--------|55555555|--------|--------|44444444|77777777|

Song fades but bass ends here.
comments
We did not receive enough feedback on this tab! Please rate:
print report bad tab
1 2 3 4 5
1 comment total.
0 reply
ScreamoBassist wrote on February 10 2009, 11:53 am

wut the **** is with the letters??

I want to post or [tab]
guest
You may want to rate the tab now too:
select rating
Please do not post tabs as comments. Select "correction" instead!