Oops, an error
Loading. Please wait.

Spaceman Bass Tab

version 4
version 4

Whole song

Interactive

2,656 views 1 this week
1 commentread comment
1 2 3 4 5
accurate
x 2
add to favorites
launch autoscroll
font size
0
reset
guitar tuner
Tab Pro tools
  • play this tab
  • loop segment
  • change instrument
  • show fretboard
  • metronome
Autoscroll
slow
fast
+/-
esc
set tempo
stop
Contributor
Track 3 off Day & Age

So far no tab has gotten it right. so here is the correct bass tab.

Tuning: standard

Intro/Chorus/outro: 11=eleven
--------------------------------------------------------------------------|
---------1111-11-1111--------77-7-77--------1111-11-1111--------99-9-99---|
-77777777------------77777777-------77777777------------------------------|
---------------------------------------------------------7777777----------|

first part of verse don't play

Verse:
---------------------------------------------------------|
---------------------------------------------------------|
-7-7-77-7-7-7-779-x2---2-2-222-4-4-44-4-2-2-22-2-2-2-22--|
---------------------------------------------------------|

for the pre-chorus you can play it either this way or an octave lower. (Live higher, 
lower).

pre-chorus
--------------------------------------------------------------------|
--------------------------------------------------------------------|
-12-12-121212-14-14-1414-14-16-16-161616-11-11-1111-11--x3---14-x32-|
--------------------------------------------------------------------|

chorus: x1

verse: x2

prechorus: x1

chorus: x2

bass solo/bridge:
-------------------------------------|
----------------------------2-4-6\---|
--4---2-2-4-------24--2-2-4----------|  x3
-----4-4----4-4-4----4-4-------------|


-----------------------------------------------------------|
-2---2-----2--2--------------------------------------------|
----4-4-2-4--4--2--4---2-2-4-------24--2-2-4-------20---2--|
----------------------4-4----4-4-4----4-4----4-4-4---------|

for the next part there is no bass but you can go back and forth between 6 and 7 like this.

d--6---6---6--6--6--------|
a----7---7---7--7-7-------|

chorus is different here
------------------------------------------------------------------------|
------------------------------------------------------------------------|
--777777774444444477777777000000000000000044444444000000002222-2-2-2-2--|  x2
------------------------------------------------------------------------|

after that x2 play the normal chorus till the end.

hope you enjoy it
please leave any comments and please rate.
comments
We did not receive enough feedback on this tab! Please rate:
print report bad tab
1 2 3 4 5
1 comment total.
0 reply
Vicer Reversal wrote on March 9 2009, 09:08 am

thx man for the correct tab

I want to post or [tab]
guest
You may want to rate the tab now too:
select rating
Please do not post tabs as comments. Select "correction" instead!