Oops, an error
Loading. Please wait.

Spaceman Bass Tab

version 5
version 5

Whole song

Interactive

22,952 views 33 this week
1 commentread comment
1 2 3 4 5
excellent!
x 17
add to favorites
launch autoscroll
font size
0
reset
guitar tuner
Tab Pro tools
  • play this tab
  • loop segment
  • change instrument
  • show fretboard
  • metronome
Autoscroll
slow
fast
+/-
esc
set tempo
stop
Contributor
Band: The Killers
Song: Spaceman
Bassist: Mark Stoermer

Hey all. Without wanting to sound like a jerk, none of the Spaceman bass tabs on here are correct.
This sounds 100% to me however if you find any errors please leave a comment!
It's a really fun song to play and isn't too tough to get the hang of.
Enjoy and please don't forget to rate!

Will


Intro (bass begins at 00:12)
G|----------------|----------------|----------------|----------------|
D|----------------|----------------|----------------|7-7-7-7-7-7-7-7-|
A|7-7-7-7-7-7-7-7-|----------------|7-7-7-7-7-7-7-7-|----------------|
E|----------------|9-9-9-9-9-9-9-9-|----------------|----------------|

G|----------------|----------------|----------------|----------------|
D|7-7-7-7-7-7-7-7-|----------------|----------------|----------------|
A|----------------|----------------|----------------|----------------|
E|----------------|9-9-9-9-9-9-9-9-|4-4-4-4-4-4-4-4-|7-7-7-7-7-7-7-7-|


Verse 1 (bass comes in after 8 bars - at 00:38)
G|----------------|------------------|
D|----------------|------------------|
A|7-7-7-7-7-7-7-7-|--7-7-7---7-7(h)9-|
E|----------------|------------------| x2

G|----------------|----------------|----------------|----------------|
D|----------------|----------------|----------------|----------------|
A|----------------|----------------|----------------|----------------|
E|7-7-7-7-7-7-7-9-|--9-9-9---9-9-9-|7-7-7-7-7-7-7-7-|--7-7-7---7-7-7-|


Pre-Chorus (00:50)
G|----------------|----------------|-----------------------|----------------|
D|7-7-7-7-7-7-7-9-|--9-9-9---9-9-9-|11-11-11-11-11-11-11-6-|--6-6-6---6-6-6-|
A|----------------|----------------|-----------------------|----------------|
E|----------------|----------------|-----------------------|----------------| x2


G|----------------|----------------|----------------|----------------|
D|----------------|----------------|----------------|----------------|
A|----------------|----------------|----------------|----------------|
E|5-5-5-5-5-5-5-7-|--7-7-7---7-7-7-|8-8-8-8-8-8-8-9-|--9-9-9---9-9-9-|


G|----------------|----------------|----------------|----------------|
D|----------------|----------------|9-9-9-9-9-9-9-9-|--9-9-9---9-9-9-|
A|----------------|----------------|----------------|----------------|
E|7-7-7-7-7-7-7-7-|--7-7-7---7-7-7-|----------------|----------------|


Chorus 1 (01:15)
(same as Intro)


Verse 2 (01:28)
(repeat Verse 1) x2


Pre-Chorus (01:53)
G|----------------|----------------|-----------------------|----------------|
D|7-7-7-7-7-7-7-9-|--9-9-9---9-9-9-|11-11-11-11-11-11-11-6-|--6-6-6---6-6-6-|
A|----------------|----------------|-----------------------|----------------|
E|----------------|----------------|-----------------------|----------------| x2


G|----------------|----------------|----------------|----------------|
D|----------------|----------------|----------------|----------------|
A|----------------|----------------|----------------|----------------|
E|5-5-5-5-5-5-5-7-|--7-7-7---7-7-7-|8-8-8-8-8-8-8-9-|--9-9-9---9-9-9-|


G|----------------|----------------|----------------|----------------|
D|----------------|----------------|----------------|----------------|
A|----------------|----------------|----------------|----------------|
E|2-2-2-2-2-2-2-2-|--2-2-2---2-2-2-|7-7-7-7-7-7-7-7-|--7-7-7---7-7-7-|


Chorus 2 (02:19)
(Intro x2)


Bridge (02:44)
G|----------------|----------------|----------------|----------------|
D|----------------|----------------|----------------|2---4---6-------|
A|4-------2---2-4-|----------------|4-------2---2-4-|----------------|
E|------4---4-----|--4---4---4----4|------4---4-----|----------------| x3

G|----------------|----------------|----------------|----------------|
D|2-------2-------|----------1---2-|----------------|----------------|
A|------4---2-2-2-|--2---4---------|4-------4---4---|----------------|
E|----------------|----------------|------4---4---5-|--5---4---2-----|

G|----------------|----------------|----------------|----------------|
D|----------------|----------------|----------------|----------------|
A|4-------2---2-4-|----------------|----------------|----------------|
E|------4---4-----|--4---4---4---4-|5---------------|7---------------|

(bass after 4 bars - comes in very quietly, slowly increasing in volume)
G|-----------------|----------------|----------------|----------------|
D|-----------------|----------------|----------------|----------------|
A|-----------------|----------------|----------------|----------------|
E|\0-0---0---0-0-0-|2-2---2---2-2-2-|5-5---5---5-5-5-|7-7-7-7-7-7-7-7-|


Chorus 3 (03:28 - slightly different to previous ones)
G|----------------|----------------|----------------|----------------|\
D|----------------|----------------|----------------|----------------| \
A|7-7-7-7-7-7-7-7-|6-6-6-6-6-6-6-6-|----------------|----------------|  \
E|----------------|----------------|5-5-5-5-5-5-5-5-|4-4-4-4-4-4-4-4-|   \
                                                                         x2
G|----------------|----------------|----------------|----------------|   /
D|----------------|----------------|----------------|----------------|  /
A|----------------|----------------|----------------|----------------| /
E|7-7-7-7-7-7-7-7-|9-9-9-9-9-9-9-9-|5-5-5-5-5-5-5-5-|7-7-7-7-7-7-7-7-|/

G|----------------|----------------|----------------|----------------|\
D|----------------|----------------|----------------|7-7-7-7-7-7-7-7-| \
A|7-7-7-7-7-7-7-7-|----------------|7-7-7-7-7-7-7-7-|----------------|  \
E|----------------|9-9-9-9-9-9-9-9-|----------------|----------------|   \
                                                                         x2
G|----------------|----------------|----------------|----------------|   /
D|7-7-7-7-7-7-7-7-|----------------|----------------|----------------|  /
A|----------------|----------------|----------------|----------------| /
E|----------------|9-9-9-9-9-9-9-9-|4-4-4-4-4-4-4-4-|7-7-7-7-7-7-7-7-|/


Outro (04:19 - very quiet - repeat until end, slowly fading down)

G|--------13-13----|13-13-----13-----13-13----|
D|-----------------|--------------------------|
A|-----------------|--------------------------|
E|-----------------|--------------------------|
comments
print report bad tab
1 comment total.
+3 reply
necriononguitar wrote on May 31 2009, 04:16 am

hey nice tab 5*
but the text/announcement in the beginning is 100% unnecessary :D
no more proud words. we got it, your the best!
Cya XD

I want to post or [tab]
guest
You may want to rate the tab now too:
select rating
Please do not post tabs as comments. Select "correction" instead!