Oops, an error
Loading. Please wait.

This Is Your Life Bass Tab

9,045 views 12 this week
2 commentsread comments
1 2 3 4 5
excellent!
x 9
add to favorites
launch autoscroll
font size
0
reset
guitar tuner
Tab Pro tools
  • play this tab
  • loop segment
  • change instrument
  • show fretboard
  • metronome
×
Best way to learn
"This Is Your Life"
Autoscroll
slow
fast
+/-
esc
set tempo
stop
Contributor
rko
INTRO (x4)
G-------------------------------------------------------------------|
D-------------------------------------------------------------------|
A-8-888-888-888-88---5-555-555-555-55-------------------------------|
E-------------------------------------5-555-555-555-55-6-666-888-88-|

Verse 1 starts like this
G---------------------------------------|
D---------------------------------------|
A-8-8-8-8---5-5-5-5---------------------|
E---------------------5-5-5-5---6-6-8-8-|

MAIN RIFF
Repeat until Bridge
G-------------------------------------------------------------------|
D-------------------------------------------------------------------|
A-8-888-888-888-88---5-555-555-555-55-------------------------------|
E-------------------------------------5-555-555-555-55-6-666-888-88-|

BRIDGE
Joins in at 2.27
G-------------------------------------------------------------------------|
D-------------------------------------------------------------------------|
A-------------------------------------------------------------------------|
E-3-333-333-333-33---6-666-666-666-66----8-888-888-888-888-888-888-888-88-|

Repeat Main Riff
comments
print report bad tab
2 comments total.
0 reply
guitarboy48 wrote on January 19 2009, 12:43 pm

Perfect, continue doing tabs.

0 reply
rko wrote on February 13 2009, 01:39 pm

Thanks for rating/commenting my other tabs as well as this one! :)

I want to post or [tab]
guest
You may want to rate the tab now too:
select rating
Please do not post tabs as comments. Select "correction" instead!