Oops, an error
Loading. Please wait.

This Is Your Life Tab

10,609 views 6 this week
6 commentsread comments
1 2 3 4 5
accurate
x 4
add to favorites
launch autoscroll
font size
0
reset
how to read this tab
guitar tuner
Tab Pro tools
  • play this tab
  • loop segment
  • change instrument
  • show fretboard
  • metronome
×
Best way to learn
"This Is Your Life"
Autoscroll
slow
fast
+/-
esc
set tempo
stop
Contributor
This Is Your Life
The Killers
Day and Age
Tabbed by: Jaden Sherrard

Tuning: Standard

Intro
e|-------17--(17)--------15--(15)-------12--(12)------8--(8)--10-(10)---|
B|--13--------------13--------------9--------------9--------------------|
G|----------------------------------------------------------------------|
D|----------------------------------------------------------------------|
A|----------------------------------------------------------------------|
E|----------------------------------------------------------------------|

Verse (Palm Muted)
It is actually played on bass, but this is how you play it on guitar
e|-------------------------------------------------------|
B|-------------------------------------------------------|
G|--5--5-5-5--5-5-5--5-5-5--5--2--2-2-2--2-2-2--2-2-2--2-|
D|--3--3-3-3--3-3-3--3-3-3--3--0--0-0-0--0-0-0--0-0-0--0-|
A|-------------------------------------------------------|
E|-------------------------------------------------------|

--------------------------------------------------------|
--------------------------------------------------------|
--------------------------------------------------------|
-2--2-2-2--2-2-2--2-2-2--2--3--3-3-3--3--5--5-5-5--5----| (x3)
-0--0-0-0--0-0-0--0-0-0--0--1--1-1-1--1--3--3-3-3--3----|
--------------------------------------------------------|

Chorus
e|-------17--(17)--------15--(15)-------12--(12)------8--(8)--10-(10)---|
B|--13--------------13--------------9--------------9--------------------|
G|----------------------------------------------------------------------|
D|----------------------------------------------------------------------|
A|----------------------------------------------------------------------|
E|----------------------------------------------------------------------|

Bridge
e|-----8-5--6-5----3--5------8-5--6-5----3--5--|
B|--6------------6--------6------------6-------|
G|---------------------------------------------|
D|---------------------------------------------|
A|---------------------------------------------|
E|---------------------------------------------|

----8-5--6-5----3--5-------8-5--6-5----3--5--1--(1)---|
-5------------6---------6------------6----------------|
------------------------------------------------------|
------------------------------------------------------|
------------------------------------------------------|
------------------------------------------------------|

Verse (Muted)
    x  x x x  x x x  xxxxx  x  x  x x x  x x x  xxxxx  x
e|-------------------------------------------------------|
B|--5--5-5-5--5-5-5--55555--5--2--2-2-2--2-2-2--22222--2-|
G|--5--5-5-5--5-5-5--55555--5--2--2-2-2--2-2-2--22222--2-|
D|--3--3-3-3--3-3-3--33333--3--0--0-0-0--0-0-0--00000--0-|
A|-------------------------------------------------------|
E|-------------------------------------------------------|

 x  x x x  x x x  xxxxx  x  x  xxxxx  x  x  xxxxx  x
--------------------------------------------------------|
--------------------------------------------------------|
-2--2-2-2--2-2-2--22222--2--3--33333--3--5--55555--5----|
-2--2-2-2--2-2-2--22222--2--3--33333--3--5--55555--5----| (x2)
-0--0-0-0--0-0-0--00000--0--1--11111--1--3--33333--3----|
--------------------------------------------------------|

Chorus
e|--5-5-5-5-5-5-5-5-/-1-1-1-1-1-1-1-1-0-0-0-0-0-0-0-0--|
B|-----------------------------------------------------|
G|-----------------------------------------------------|
D|-----------------------------------------------------|
A|-----------------------------------------------------|
E|-----------------------------------------------------|

-1-1-1-1-/-3-3-3-3--|
--------------------|
--------------------|
--------------------|
--------------------|
--------------------|

e|-------17--(17)--------15--(15)-------12--(12)------8--(8)--10-(10)---|
B|--13--------------13--------------9--------------9--------------------|
G|----------------------------------------------------------------------|
D|----------------------------------------------------------------------|
A|----------------------------------------------------------------------|
E|----------------------------------------------------------------------|

Final Chorus
e|-------17--(17)--------15--(15)-------12--(12)------8--(8)--10-(10)---|
B|--13--------------13--------------9--------------9--------------------|
G|----------------------------------------------------------------------|
D|----------------------------------------------------------------------|
A|----------------------------------------------------------------------|
E|----------------------------------------------------------------------|

e|-----8-5--6-5----3--5------8-5--6-5----3--5--|
B|--6------------6--------6------------6-------|
G|---------------------------------------------|
D|---------------------------------------------|
A|---------------------------------------------|
E|---------------------------------------------|

----8-5--6-5----3--5-------8-5--6-5----3--5--1--(1)---|
-5------------6---------6------------6----------------|
------------------------------------------------------|
------------------------------------------------------|
------------------------------------------------------|
------------------------------------------------------|

e|-------17--(17)--------15--(15)-------12--(12)------8--(8)--10-(10)---|
B|--13--------------13--------------9--------------9--------------------|
G|----------------------------------------------------------------------|
D|----------------------------------------------------------------------|
A|----------------------------------------------------------------------|
E|----------------------------------------------------------------------|

Outro Solo
e|-------------------------------------------------|
B|-------------------------------------------------|
G|-------------------------------------------------|
D|--/10--(10)--8---7-------------------------------|
A|----------------------8--10-(-10)-----8-~-10-~---|
E|-------------------------------------------------|

e|-----8-5--6-5----3--5------8-5--6-5----3--5--|
B|--6------------6--------6------------6-------|
G|---------------------------------------------|
D|---------------------------------------------|
A|---------------------------------------------|
E|---------------------------------------------|

----8-5--6-5----3--5-------8-5--6-5----3--5--1--(1)---|
-6------------6---------6------------6----------------|
------------------------------------------------------|
------------------------------------------------------|
------------------------------------------------------|
------------------------------------------------------|
Keep playing this riff until the song is over...

Thats it, Have fun with it!
comments
print report bad tab
6 comments total. Showing first comments.
0 reply
guitarboy48 wrote on December 12 2008, 06:02 pm

Very good, in the bridge you missed a note, but the whole thing worked well.

0 reply
Jadensherrard wrote on December 12 2008, 06:27 pm

thanks, i'll fix it.

0 reply
guitarboy48 wrote on January 7 2009, 11:37 am

5 stars.

I want to post or [tab]
guest
You may want to rate the tab now too:
select rating
Please do not post tabs as comments. Select "correction" instead!