Oops, an error
Loading. Please wait.

Tranquilize Bass Tab

version 1
version 1

Whole song

Interactive

4,039 views 3 this week
no commentswrite comment
1 2 3 4 5
please rate
add to favorites
launch autoscroll
font size
0
reset
guitar tuner
Tab Pro tools
  • play this tab
  • loop segment
  • change instrument
  • show fretboard
  • metronome
×
Best way to learn
"Tranquilize"
Autoscroll
slow
fast
+/-
esc
set tempo
stop
Difficulty
novice
Tranquilize-The Killers

Main riff part 1
G|------------------|
D|------------------|
A|------------------|
E|--0---9-/-3---4-1-|  

Main riff part 2
G|----------------------|
D|----------------------|
A|----------------------|
E|--0---9---7-9-7-/-4-1-| 

Intro into verse 1 goes
Riff 1, 1, 1, 2, 1, 2, 1, 2, 1, 2, 1, 2, 2, 1, 1, 2, 1, 2, 1, 1, 2, 2
 
Pre-chorus (those 10’s and 11’s are played at the same speed as the rest)
G|----------------------------------------------------------------|
D|----------------------------------------------------------------|
A|----------------------------------------------------------------|
E|-00000002222222444444455555557777777888888810-10-10-10-10-10-10-|

G|--------------------------------------------------|
D|--------------------------------------------------|
A|--------------------------------------------------|
E|-11-11-11-11-11-11-11-13-----13-----13--13--13—13~|

Chorus
G|-----------------|
D|-----------------|
A|-----------------|
E|-1-1-1-1-4-4-4-4-|   x7

Post Chorus
G|------------------|
D|-6-5-4-3-2-1------|
A|-------------5-4--|
E|------------------|

Verse 2 goes
Riff 1, 2, 2, 2, 1, 1, 2, 1, 1, 2

Pre-chorus x7

Chorus

Ending
G|----------------------------------|
D|-6-5-4-3-2-1----------------------|
A|------------5-4-3-2-1-------------|
E|----------------------5-4-3-2-1-0~|

I’m pretty sure the final part with Lou Reed is just piano and drums.
comments
We did not receive enough feedback on this tab! Please rate:
print report bad tab
1 2 3 4 5
I want to post or [tab]
guest
You may want to rate the tab now too:
select rating
Please do not post tabs as comments. Select "correction" instead!