Oops, an error
Loading. Please wait.

Uncle Johnny Tab

version 1
version 1

Intro

Whole song

Interactive

17,794 views 36 this week
9 commentsread comments
1 2 3 4 5
excellent!
x 13
add to favorites
launch autoscroll
font size
0
reset
how to read this tab
guitar tuner
Tab Pro tools
  • play this tab
  • loop segment
  • change instrument
  • show fretboard
  • metronome
Autoscroll
slow
fast
+/-
esc
set tempo
stop
Contributor
Artist: The Killers
Song: Uncle Johnny
Album: Sams Town
Tabbed by: Necriononguitar
e-mail: tim.rathgen@gmx.de

REAL FANS SUPPORT BANDS BY PURCHASING THEIR CD'S!!!


Tuning: Half-Step Down

. = Palm-Muted
~ = hold note
^ = vibrate
p = pull off
h = hammer on
/ = slide up
\ = slide down



Intro: (slide up every note)
Eb-------------------------------------------------------|
Bb--0-0-0-0--0-0-0-0--0-0-0--0-0-0-0--0-0-0-0--0-0-0-----|
Gb--4-4-4-4--4-6-7-9--4-6-7--9-9-9-9--9-7-6-7--6-7-6-----|
Db-------------------------------------------------------|
Ab-------------------------------------------------------|
Eb-------------------------------------------------------|

Play this part A LOT...
Play it through the Verse and Pre-Chorus

At 1:29 the second Guitar starts playing:

UPDATE 22/08/2010    thanks to cachuchis for the riff ;D

e|----17-14-----------------17-14------------------|
B|-------------17-15-----------------17-15---------|
G|-16-------16-------14-16~~------16-------14~~----|
D|-------------------------------------------------|
A|-------------------------------------------------|
E|-------------------------------------------------|

e|----17-14---------------------17-14---------------------|
B|-------------17-15----15~~-------------17-15----15~~----|
G|-16-------16-------16------16-------16-------16---------|
D|--------------------------------------------------------|
A|--------------------------------------------------------|
E|--------------------------------------------------------|

Chorus: 1:56
Eb--------------------------------------------|
Bb--------------------------------------------|
Gb--7------6-----4----------------------------|
Db--7-x4---7-x4--4-x4---7-------5-----7-------|
Ab--5------4-----2------7-x4----5-x8--7-x8----|
Eb----------------------5-------3-----5-------|


Repeat all parts until the Outro:       FUCKED UP VERSION!!!
Eb--------------------------------|
Bb---------0------------0---------|
Gb-----4-------------4------------|
Db--------------------------------| x2 then
Ab--2----------2-2----------------|
Eb--------------------------------|

Eb------------------------------------------------------------|
Bb-------0------------0-------------0------------0------------|
Gb----4------------4-------------4------------4---------------|
Db--4-------4--2----------2--0---------0----------------------|
Ab----------------------------------------4----------4--2~----|
Eb------------------------------------------------------------|


UPDATE 25/08/2010     thanks to cachuchis for the outro ;D
e|------|  |--------------------------|
B|---0--|  |---0----0----0----0-------|
G|--4-4-|  |--4-4--4-4--4-4--4-4------|
D|------|x4|-4~~--2~~--0~~------------|
A|-2----|  |----------------4~~---2~~-|
E|------|  |--------------------------|


Thats it! I hope this helped, please rate, comment and correct me!

Cheers...
comments
print report bad tab
9 comments total. Showing first comments.
-2 reply
mindfweek182 wrote on February 4 2009, 06:05 pm

i was looking for an easy song. my fingers are aching from others...

+2 reply
limbodean43 wrote on February 5 2009, 01:16 pm

well, but thats not his fault, buddy
this song IS quiet difficult,but this is the best tab, so...
5*
Why dont you keep your problems to yourself, HUH?

0 reply
cachuchis wrote on August 22 2010, 02:25 pm

the pre-chorus riff may be like this:


e|----17-14-----------------17-14---------------|
B|-------------17-15-----------------17-15------|
G|-16-------16-------14-16~~------16-------14~~-|
D|----------------------------------------------|
A|----------------------------------------------|
E|----------------------------------------------|

e|----17-14---------------------17-14-----------------|
B|-------------17-15----15~~-------------17-15----15~~|
G|-16-------16-------16------16-------16-------16-----|
D|----------------------------------------------------|
A|----------------------------------------------------|
E|----------------------------------------------------|
[tab/]

I think that the outro tab thing is a bit wrong too but im not sure and im lazy to tab it

I want to post or [tab]
guest
You may want to rate the tab now too:
select rating
Please do not post tabs as comments. Select "correction" instead!