Oops, an error
Loading. Please wait.

Uncle Jonny Bass Tab

version 1
version 1

Whole song

6,663 views 10 this week
6 commentsread comments
1 2 3 4 5
excellent!
x 7
add to favorites
launch autoscroll
font size
0
reset
guitar tuner
Tab Pro tools
  • play this tab
  • loop segment
  • change instrument
  • show fretboard
  • metronome
×
Best way to learn
"Uncle Jonny"
Autoscroll
slow
fast
+/-
esc
set tempo
stop
Contributor
Song: Uncle Johnny
Artist: The Killers
Album: Sam's Town
Tabber: Adam

VERSE 0:10

G|----------------|----------------|----------------|----------------|
D|----------------|----------------|----------------|----------------|	x2
A|------11-13\----|----------------|------11-13\----|----------------|
E|-4-6-----------4|-6-6-6-6-6-6-6-6|-4-6-----------4|-2-2-2-2-1-1-1-1|

G|----------------|----------------|----------------|----------------|
D|----------------|----------------|----------------|----------------|	x2
A|----------------|----------------|----------------|----------------|
E|-4-6-6-6-6-6-6-6|-4-6-6-6-6-6-6-6|-4-6-6-6-6-6-6-6|-2-2-2-2-1-1-1-1|

G|----------------|----------------|----------------|----------------|
D|----------------|----------------|----------------|----------------|	x1
A|------11-13\----|----------------|------11-13\----|----------------|
E|-4-6-----------4|-6-6-6-6-6-6-6-6|-4-6-----------4|-2-2-2-2-1-1-1-1|

G|----------------|----------------|----------------|----------------|
D|----------------|----------------|----------------|----------------|	x1
A|----------------|----------------|----------------|----------------|
E|-4-6-6-6-6-6-6-6|-4-6-6-6-6-6-6-6|-4-6-6-6-6-6-6-6|-2-2-2-2-1-1-1-1|

G|----------------|----------------|----------------|----------------|
D|----------------|----------------|----------------|-4-4-4-4-3-3-3-3|	x1
A|----------------|----------------|----------------|----------------|
E|-4-6-6-6-6-6-6-6|-4-6-6-6-6-6-6-6|-4-6-6-6-6-6-6-6|----------------|


CHORUS 1:28

G|----------------|----------------|----------------|----------------|
D|----------------|----------------|----------------|----------------|
A|----------------|----------------|-6-6-6-6-6-6-6-6|-6-6-6-6-6-686--|
E|-2-2-2-2-2-2-2-2|-2-2-2-2-2-2-2-2|----------------|---------------8|


G|----------------|----------------|----------------|----------------|
D|----------------|----------------|----------------|----------------|
A|----------------|-----------6-8--|----------------|----------------|
E|-6-6-6-6-6-6-6-6|-6-6-6-6-6-----8|-4-4-4-4-4-4-4-4|-4-4-4-4-4-4-4-4|


G|----------------|----------------|----------------|----------------|
D|----------------|----------------|----------------|----------------|
A|----------------|-6-6-6-6-6-6-6-6|-4-----4-3-----3|-6-----6-4-----4|
E|-2-2-2-2-2-2-2-2|----------------|----------------|----------------|


G|----------------|----------------|
D|----------------|----------------|	x1
A|----------------|----------------|
E|-2-2-2-2-2-2-2-3|-4-4-4-4-4-4-4-4|


VERSE 2:06

G|----------------|----------------|----------------|----------------|
D|----------------|----------------|----------------|----------------|	x1
A|------11-13\----|----------------|------11-13\----|----------------|
E|-4-6-----------4|-6-6-6-6-6-6-6-6|-4-6-----------4|-2-2-2-2-1-1-1-1|

G|----------------|----------------|----------------|----------------|
D|----------------|----------------|----------------|----------------|	x1
A|----------------|----------------|----------------|----------------|
E|-4-6-6-6-6-6-6-6|-4-6-6-6-6-6-6-6|-4-6-6-6-6-6-6-6|-2-2-2-2-1-1-1-1|

G|----------------|----------------|----------------|----------------|
D|----------------|----------------|----------------|-4-4-4-4-3-3-3-3|	x1
A|----------------|----------------|----------------|----------------|
E|-4-6-6-6-6-6-6-6|-4-6-6-6-6-6-6-6|-4-6-6-6-6-6-6-6|----------------|


CHORUS 2:40

G|----------------|----------------|----------------|----------------|
D|----------------|----------------|----------------|----------------|
A|----------------|----------------|-6-6-6-6-6-6-6-6|-6-6-6-6-6-686--|
E|-2-2-2-2-2-2-2-2|-2-2-2-2-2-2-2-2|----------------|---------------8|


G|----------------|----------------|----------------|----------------|
D|----------------|----------------|----------------|----------------|
A|----------------|-----------6-8--|----------------|----------------|
E|-6-6-6-6-6-6-6-6|-6-6-6-6-6-----8|-4-4-4-4-4-4-4-4|-4-4-4-4-4-4-4-4|


G|----------------|----------------|----------------|----------------|
D|----------------|----------------|----------------|----------------|
A|----------------|-6-6-6-6-6-6-6-6|-4-----4-3-----3|----------------|
E|-2-2-2-2-2-2-2-2|----------------|----------------|-6-----6-4-----4|


G|----------------|----------------|
D|----------------|----------------|	x1
A|----------------|----------------|
E|-2-2-2-2-2-2-2-3|-4-4-4-4-4-4-4-4|


VOCAL HARMONY PART 3:19

G|----------------|----------------|----------------|----------------|
D|----------------|----------------|----------------|----------------|	x2
A|-4-----4-3-----3|----------------|----------------|----------------|
E|----------------|-6-----6-4-----4|-2-2-2-2-2-2-2-3|-4-4-4-4-4-4-4-4|


VERSE 3:41

G|----------------|----------------|----------------|----------------|
D|----------------|----------------|----------------|----------------|	x2
A|------11-13\----|----------------|------11-13\----|----------------|
E|-4-6-----------4|-6-6-6-6-6-6-6-6|-4-6-----------4|-2-2-2-2-1-1-1-1|

OUTRO 4:03

G|----------------|----------------|----------------|----------------|
D|-8-----8-8-----8|-8-----8-8-----8|----------------|----------------|
A|----------------|----------------|-8-----8-6-----6|-4-----4-3-----3|
E|----------------|----------------|----------------|----------------|

G|----------------|
D|----------------|	x1
A|-6--------------|
E|----------------|
comments
print report bad tab
6 comments total. Showing first comments.
0 reply
ruy006 wrote on May 6 2007, 02:05 pm

dude, the chorus is like that, the rest is cool, but plz correct the chorus

0 reply
ruy006 wrote on May 6 2007, 02:06 pm

sorry, i meant...the chorus is not like that

0 reply
Phil Starr wrote on May 23 2008, 04:32 am

If my ears are any good then the chorus should move from F# to G# in the third line (4th fret E string not 6th on the A) and the decending sequence is correct in the second chorus. The final note is A#. Thanks for doing all the work, I love playing this.

I want to post or [tab]
guest
You may want to rate the tab now too:
select rating
Please do not post tabs as comments. Select "correction" instead!