Oops, an error
Loading. Please wait.

Under The Gun Bass Tab

version 2
version 2

Whole song

Interactive

2,863 views 12 this week
2 commentsread comments
1 2 3 4 5
accurate
x 3
add to favorites
launch autoscroll
font size
0
reset
guitar tuner
Tab Pro tools
  • play this tab
  • loop segment
  • change instrument
  • show fretboard
  • metronome
Autoscroll
slow
fast
+/-
esc
set tempo
stop
Contributor
Difficulty
novice
This is easily one of the best songs of Sawdust.
Tuning: Standard

Verse
---------------------------------|
---------------------------------|
-9-99-9-9-9-999------------------|
----------------9-99-9-9-9-999---|   x4

Pre-Chorus
----------------------|
----------------------|
----------------------|
-6 x16----4 x16-------|    x2

Chorus:
-----------3 x12-------------------------------------|
------3 x8--------31---------------------------------|
-4 x8---------------46-------------------------------|  x2 but second fill second time
----------------------------  and play the top 3 x16-|


verse x4

pre-chorus x2

chorus x2 same as last time

bridge
---------------------------------|
---------------------------------|
---------------------------------|
-6-66-66-66-4-44-44-44-----------|  x2

--------------------|
--------------------| you can slightly hear the bass going
--9988998899889988--| back and forth between these two notes.
--------------------|

--------------------|
--------------------|
-885588558----------|   pause
--------------------|

pre-chorus x2

chorus x2

There you have it one of the best songs on Sawdust.

playing the fill and bridge might be tricky but the rest is easy.

ENJOY!!
comments
We did not receive enough feedback on this tab! Please rate:
print report bad tab
1 2 3 4 5
2 comments total.
+1 reply
Jadensherrard wrote on January 3 2009, 02:15 am

great tab man

0 reply
Bassprogman wrote on December 20 2012, 05:49 pm

Thats a really fun song to play

I want to post or [tab]
guest
You may want to rate the tab now too:
select rating
Please do not post tabs as comments. Select "correction" instead!