Oops, an error
Loading. Please wait.

When You Were Young Bass Tab

version 1
19,455 views 12 this week
4 commentsread comments
1 2 3 4 5
worth learning
x 5
add to favorites
launch autoscroll
font size
0
reset
guitar tuner
Tab Pro tools
  • play this tab
  • loop segment
  • change instrument
  • show fretboard
  • metronome
×
Best way to learn
"When You Were Young"
Autoscroll
slow
fast
+/-
esc
set tempo
stop
Contributor
Difficulty
intermediate
---------------------------------------------------------------------------
		  When You Were Young - The Killers
---------------------------------------------------------------------------
Tabbed By : bass01star 
e-mail: 

Tuning: standard

Intro                                                                    x2
G|-------------------------------------------------------------------------|
D|-------------------------------------------------------------------------|
A|-44444444-6666-9999-11-11-11-11-11-11-11-11-44444444---------------------|
E|-------------------------------------------------------------------------|

Verse                                                                    x2
G|-------------------------------------------------------------------------|
D|-------------------------------------------------------------------------|
A|-44444444-6666-9999-11-11-11-11-11-11-11-11-44444444---------------------|
E|-------------------------------------------------------------------------|

Chorus                                                                   x2
G|-------------------------------------------------------------------------|
D|-------------------------------------------------------------------------|
A|-44444444-6666-9999-11-11-11-11-11-11-11-11-44444444---------------------|
E|-------------------------------------------------------------------------|

Verse                                                                    x2
G|-------------------------------------------------------------------------|
D|-------------------------------------------------------------------------|
A|-44444444-6666-9999-11-11-11-11-11-11-11-11-44444444---------------------|
E|-------------------------------------------------------------------------|

Chorus                                                                   x3
G|-------------------------------------------------------------------------|
D|-------------------------------------------------------------------------|
A|-44444444-6666-9999-11-11-11-11-11-11-11-11-44444444---------------------|
E|-------------------------------------------------------------------------|

Bridge
G|-------------------------------------------------------------------------|
D|-------------------------------------------------------------------------|
A|-4--------6----9----11----------------------4----------------------------|
E|-------------------------------------------------------------------------|

G|-------------------------------------------------------------------------|
D|-------------------------------------------------------------------------|
A|-44444444----------------------------------------------------------------|
E|-------------------------------------------------------------------------|
                                                                         x2 
G|-------------------------------------------------------------------------|
D|-------------------------------------------------------------------------|
A|-44444444-6666-9999-11-11-11-11-11-11-11-11-44444444---------------------|
E|-------------------------------------------------------------------------|

G|-------------------------------------------------------------------------|
D|-------------------------------------------------------------------------|
A|-44-4-66-6-99-9-11-11-11---9-6---4---------------------------------------|
E|-------------------------------------------------------------------------|

(Piano)

(bass only)
G|-------------------------------------------------------------------------|
D|-------------------------------------------------------------------------|
A|-44444444-6666-9999-11-11-11-11-11-11-11-11-4444-16-16-16-16-------------|
E|-------------------------------------------------------------------------|
  
                                                                         x2
G|-------------------------------------------------------------------------|
D|-------------------------------------------------------------------------|
A|-44444444-6666-9999-11-11-11-11-11-11-11-11-44444444---------------------|
E|-------------------------------------------------------------------------|

Verse                                                                    x2
G|-------------------------------------------------------------------------|
D|-------------------------------------------------------------------------|
A|-44444444-6666-9999-11-11-11-11-11-11-11-11-44444444---------------------|
E|-------------------------------------------------------------------------|

Outro                                                                    x5
G|-------------------------------------------------------------------------|
D|-------------------------------------------------------------------------|
A|-44444444-6666-9999-11-11-11-11-11-11-11-11-44444444---------------------|
E|-------------------------------------------------------------------------|

G|-------------------------------------------------------------------------|
D|-------------------------------------------------------------------------|
A|-44-4-66-6-99-9-11-11-11---9-6---4---------------------------------------|
E|-------------------------------------------------------------------------|

comments
print report bad tab
4 comments total. Showing first comments.
0 reply
matternator wrote on August 8 2006, 05:29 am

sorry but completely wrong

0 reply
odog wrote on September 2 2006, 07:33 pm

not quite...the note pattern is right....but it's in the wrong key dude

0 reply
musiclovr5567 wrote on August 2 2009, 10:39 pm

WOW! This is 100% WRONG!!!

I want to post or [tab]
guest
You may want to rate the tab now too:
select rating
Please do not post tabs as comments. Select "correction" instead!