Oops, an error
Loading. Please wait.

When You Were Young Tab

899,816 views 816 this week
73 commentsread comments
1 2 3 4 5
accurate
x 179
add to favorites
launch autoscroll
font size
0
reset
how to read this tab
guitar tuner
Tab Pro tools
  • play this tab
  • loop segment
  • change instrument
  • show fretboard
  • metronome
Autoscroll
slow
fast
+/-
esc
set tempo
stop
Contributor
     When You Were Young - The Killers
-------------------------------------------------------------------------------
Tabbed by:Cud
Great Single Off of Sam's Town!

Tuning:All Half Step Down

Opening Chord Is This, For Sure:

e|--10----------|
B|--10----------|
G|---0----------|
D|---7----------|
A|---8----------|
E|--------------|

e|-----------------------------------------------------------------------------|
B|-----------------------------------------------------------------------------|
G|-------5------7------9------12------5----------------------------------------|
D|-------5--x8--7--x4--9--x4--12--x8--5--x8------------------------------------|
A|-------3------5------7------10------3----------------------------------------|
E|-------------------------------------------------------------------------------|

e|-----------5--3-----------------5--3---------------------------------------|
B|-----------------0---------------------------------------------------------|
G|----0h2---------------0h2-------------2------------------------------------|
D|---------------------------------------------------------------------------|
A|---------------------------------------------------------------------------|
E|---------------------------------------------------------------------------|
solo
e|-----12-12-12-12-12-12-12-12-12-12-12-12-12-12-----------------------------|
B|------------------------------------------------8-8-8-10-10-10-10----------|
G|---------------------------------------------------------------------------|
D|---------------------------------------------------------------------------|
A|---------------------------------------------------------------------------|
E|---------------------------------------------------------------------------|

e|-------------17--15--------12--------------------17--15-------|
B|-----8h10-------------12--------13-----8h10---------------10--|
G|--------------------------------------------------------------|
D|--------------------------------------------------------------|
A|--------------------------------------------------------------|
E|--------------------------------------------------------------|

e|-------------------------------------------------------------------------------|
B|-------------------------------------------------------------------------------|
G|----12----9--------------------------------------------------------------------|
D|----12-x3-9-x3-12----10-----10-9-7-5-------------------------------------------|
A|----10----7----12-x3-10-x3--10-9-7-5-------------------------------------------|
E|---------------10-----8------8-7-5-3-------------------------------------------|
Bridge In Chords
             Dminor                             F                        Am
They Say The Devil's Water It Aint So Sweet You Dont Have To Drink Right Now

Eminor                  Am     G
   But You Can Dip Your Feet, Every Once In A Little While


Outro
Repeat Verse

Outro Solo
e|-----12-12-12-12-12-12-12-12-12-12--------15-15-15-15-15-15-15-15-15-15--------|
B|------------------------------------8-10---------------------------------8-10--|
G|-------------------------------------------------------------------------------|
D|-------------------------------------------------------------------------------|
A|-------------------------------------------------------------------------------|
E|-------------------------------------------------------------------------------|
Do That Then Repeat Regular Solo Four Times

===============================================================================
comments
print report bad tab
73 comments total. Showing first comments. show 1 bad comment
0 reply
matternator wrote on July 27 2006, 05:35 pm

first chord should be D minor. main chords are simply octaves of - C,D,E,G - He's just playing a fifth above the root of the chords. solo is correct but other parts wrong

0 reply
Formalities555 wrote on October 4 2006, 03:38 pm

hes right

I want to post or [tab]
guest
You may want to rate the tab now too:
select rating
Please do not post tabs as comments. Select "correction" instead!