Oops, an error
Loading. Please wait.
We have an official When You Were Young tab made by UG professional guitarists. Check out the tab »
×
936,066 views 354 this week
73 commentsread comments
1 2 3 4 5
x 195
add to favorites
×
Save as Personal and add changes to this tab that will be seen only by you. Learn more ›
×
You can save this tab as Personal to edit and correct it or add notes. All changes will be seen only by you. Learn more »
launch autoscroll
font size
0
reset
how to read this tab
guitar tuner
backing track
0:00
0:00
edit
Autoscroll
slow
fast
+/-
esc
set tempo
stop
Author
When You Were Young - The Killers

Tabbed by:Cud
Great Single Off of Sam's Town!

Tuning: All Half Step Down


Opening Chord Is This, For Sure:

e|--10----------|
B|--10----------|
G|---0----------|
D|---7----------|
A|---8----------|
E|--------------|

e|--------------------------------------------------------------------------------|
B|--------------------------------------------------------------------------------|
G|-------5------7------9------12------5-------------------------------------------|
D|-------5--x8--7--x4--9--x4--12--x8--5--x8---------------------------------------|
A|-------3------5------7------10------3-------------------------------------------|
E|--------------------------------------------------------------------------------|

e|-----------5--3-----------------5--3---------------------------------------|
B|-----------------0---------------------------------------------------------|
G|----0h2---------------0h2-------------2------------------------------------|
D|---------------------------------------------------------------------------|
A|---------------------------------------------------------------------------|
E|---------------------------------------------------------------------------|


[Solo]

e|-----12-12-12-12-12-12-12-12-12-12-12-12-12-12-----------------------------|
B|------------------------------------------------8-8-8-10-10-10-10----------|
G|---------------------------------------------------------------------------|
D|---------------------------------------------------------------------------|
A|---------------------------------------------------------------------------|
E|---------------------------------------------------------------------------|

e|-------------17--15--------12--------------------17--15-------|
B|-----8h10-------------12--------13-----8h10---------------10--|
G|--------------------------------------------------------------|
D|--------------------------------------------------------------|
A|--------------------------------------------------------------|
E|--------------------------------------------------------------|

e|-------------------------------------------------------------------------------|
B|-------------------------------------------------------------------------------|
G|----12----9--------------------------------------------------------------------|
D|----12-x3-9-x3-12----10-----10-9-7-5-------------------------------------------|
A|----10----7----12-x3-10-x3--10-9-7-5-------------------------------------------|
E|---------------10-----8------8-7-5-3-------------------------------------------|


[Bridge In Chords]

             Dmin                               F                        Am
They Say The Devil's Water It Aint So Sweet You Dont Have To Drink Right Now

Em                      Am     G
   But You Can Dip Your Feet, Every Once In A Little While


[Outro]

[Repeat Verse]


[Outro Solo]

e|-----12-12-12-12-12-12-12-12-12-12--------15-15-15-15-15-15-15-15-15-15--------|
B|------------------------------------8-10---------------------------------8-10--|
G|-------------------------------------------------------------------------------|
D|-------------------------------------------------------------------------------|
A|-------------------------------------------------------------------------------|
E|-------------------------------------------------------------------------------|
Do That Then Repeat Regular Solo Four Times


************************************

| x  Dead note
| h  Hammer-on

************************************

            
            
Suggest correction
Creating personal tab
Creating personal tab
You can edit any tab online and save it as your Personal.

You can edit, replace or remove any tab part or add personal notes – all changes will be seen only by you.

Personal tabs can be accessed anytime from any device, even offline.
Learn more »
comments
print report bad tab
73 comments total. Showing first comments.
0 reply
matternator 10 Jul 27, 2006 01:35 PM

first chord should be D minor. main chords are simply octaves of - C,D,E,G - He's just playing a fifth above the root of the chords. solo is correct but other parts wrong

-2 reply
apcud7 132 Aug 16, 2006 09:37 PM

Opening Chord --x x 0 10 10 10
revised breakdown---
e|---------------------------------------------------------------------------|
B|---------------------------------------------------------------------------|
G|----10----9----------------------------------------------------------------|
D|----10-x3-9-x3-12----10----10-9-7-5-----------------------------------------|
A|-----8----7----12-x3-10-x3-10-9-7-5-----------------------------------------|
E|---------------10-----8-----8-7-5-3-----------------------------------------|

0 reply
Formalities555 40 Oct 04, 2006 11:38 AM

hes right

guest
You may want to rate the tab now too:
select rating
Wanna post a correction for this tab? Suggest correction