Oops, an error
Loading. Please wait.

When You Were Young Bass Tab

version 2
36,382 views 6 this week
7 commentsread comments
1 2 3 4 5
accurate
x 13
add to favorites
launch autoscroll
font size
0
reset
guitar tuner
Tab Pro tools
  • play this tab
  • loop segment
  • change instrument
  • show fretboard
  • metronome
×
Best way to learn
"When You Were Young"
Autoscroll
slow
fast
+/-
esc
set tempo
stop
Contributor
Difficulty
novice
The Killers
When You were Young
Sam's Town

Break 2 isnt perfect but i think the other parts are right.
Enjoy.....
Please rate.


Intro (x2)

------------------------------------------------------------|
------------------------------------------------------------|
-77777777-9999-11-11-11-11-14-14-14-14-14-14-14-14-77777777-|
------------------------------------------------------------|

Verse  (x2)  "You sit there in your heartache ..."

------------------------------------------------------------|
------------------------------------------------------------|
-77777777-9999-11-11-11-11-14-14-14-14-14-14-14-14-77777777-|
------------------------------------------------------------|

Chorus (x2) "He doesn't look a thing like Jesus ..."

------------------------------------------------------------|
------------------------------------------------------------|
-77777777-9999-11-11-11-11-14-14-14-14-14-14-14-14-77777777-|
------------------------------------------------------------|

Verse (x2) "Can we climb this mountain ..."

------------------------------------------------------------|
------------------------------------------------------------|
-77777777-9999-11-11-11-11-14-14-14-14-14-14-14-14-77777777-|
------------------------------------------------------------|


Chorus (x3) "We're burning down the highway skyline... "


------------------------------------------------------------|
------------------------------------------------------------|
-77777777-9999-11-11-11-11-14-14-14-14-14-14-14-14-77777777-|
------------------------------------------------------------|


Break (x1) "And sometimes you close your eyes... "


-----------------------------|
-----------------------------|
-7~--9/11--14~--7~-----------|
-----------------------------|


Break 2  ( i know he plays something different at the beginning)

------------------------------------------------------------|
------------------------------------------------------------|
-77777777-9999-11-11-11-11-14-14-14-14-14-14-14-14-77777777-|
------------------------------------------------------------|

Bridge

---------------------------|
---------------------------|
-777-666-444-222-1---------|
-------------------4-3-2---|


Rest .... "They say the devil's water"


Keyboard "solo" (x3) ".... and a little while"


------------------------------------------------------------|
------------------------------------------------------------|
-77777777-9999-11-11-11-11-14-14-14-14-14-14-14-14-77777777-|
------------------------------------------------------------|


Verse (x2) "You sit there in your heartache ..."


------------------------------------------------------------|
------------------------------------------------------------|
-77777777-9999-11-11-11-11-14-14-14-14-14-14-14-14-77777777-|
------------------------------------------------------------|


Pre Chorus (x1) "He doesn't look a thing like Jesus ..."

---------------------------------------|
---------------------------------------|
-9999999999999999-22222222-------------|
---------------------------4444444-----|


Chorus (x4) " When you were young.."  (start when brandon sings "you")

------------------------------------------|
------------------------------------------|
------------------------------------------|
-00000000-22222222-4444-77777777-00000000-|


End (x1)

----------------------------|
----------------------------|
-777-666-444-222-1----------|
-------------------4-3-2~~~-|

tabbed by steffzeng
comments
print report bad tab
7 comments total. Showing first comments.
-1 reply
bestbodyboarder wrote on October 4 2006, 09:37 pm

its all mostly okay except play the main riff like this:
G|------------------------------------------|
D|-------------------------99999999---------|
A|77777777-999-11-11-11-11---------77777777-|
E|------------------------------------------|
besides that u did pretty good

0 reply
bestbodyboarder wrote on October 4 2006, 11:28 pm

also this is a better way to play the bridge:

-------------------------|
-------------------------|
-777-666-444-222---------|
-----------------7-6-4-2-|

0 reply
steffzeng wrote on October 5 2006, 08:13 am

@ bestbodyboarder, thnx but u tabbed out the same... 9. fret on g. is the same as 14. fret on a ;)

I want to post or [tab]
guest
You may want to rate the tab now too:
select rating
Please do not post tabs as comments. Select "correction" instead!