Oops, an error
Loading. Please wait.

When You Were Young Tab

14,005 views 9 this week
4 commentsread comments
1 2 3 4 5
worth learning
x 4
add to favorites
launch autoscroll
font size
0
reset
how to read this tab
guitar tuner
Tab Pro tools
  • play this tab
  • loop segment
  • change instrument
  • show fretboard
  • metronome
×
Best way to learn
"When You Were Young"
Autoscroll
slow
fast
+/-
esc
set tempo
stop
Difficulty
novice
Band:  The Killers
Song:  When You Were Young
Tabbed by:  Thorsten Artner

Tune down 1/2 step:

guitar 1:

e|-----------------------------------------------------------|
b|--13---------(<-6->)-----------(<-8->)------(<-10->)-------|
g|--12--X-X--5-5-5-5-5-5-5--------7-7-7-7-------9-9-9--------|
D|--10--X-X--3-3-3-3-3-3-3--------5-5-5-5-------7-7-7--------|
A|--10--X-X--3-3-3-3-3-3-3--------5-5-5-5-------7-7-7--------|
E|-----------------------------------------------------------|

e|-----------------------------------------------------------|
b|-----------------------------------(<-6->)-----------------|
g|-----------5-5-5-5-5-5-5--------5-5-5-5-5-5-5--------------|
D|-----------5-5-5-5-5-5-5--------3-3-3-3-3-3-3--------------|
A|---------3--------------------0-3-3-3-3-3-3-3--------------|
E|-----------------------------------------------------------|


instead of that
e|-----------------|
b|-----------------|
g|----5-5-5-5-5-5--|
D|----5-5-5-5-5-5--|
A|--3--------------|
E|-----------------|

you can also play this
e|--------------------------|
b|----------(<-13->)--------|
g|----12-12-12-12-12-12-12--|
D|----10-10-10-10-10-10-10--|
A|----10-10-10-10-10-10-10--|
E|--8-----------------------|


guitar 2:

|--------------------------------|
|--------------------------------|
|-------14-12—---------14-12-----|
|-------------10-----------------|
|--10h12---------10h12-------12--|
|--------------------------------|
comments
print report bad tab
4 comments total. Showing first comments.
-1 reply
skateafi wrote on February 9 2008, 06:19 pm

u suck

0 reply
OnlyDrummerOnUG wrote on March 2 2008, 01:23 pm

u suck alot

0 reply
masterammermann wrote on April 19 2008, 06:04 pm

u really suck alot

I want to post or [tab]
guest
You may want to rate the tab now too:
select rating
Please do not post tabs as comments. Select "correction" instead!