Oops, an error
Loading. Please wait.

When You Were Young Bass Tab

version 4
128,383 views 96 this week
11 commentsread comments
1 2 3 4 5
excellent!
x 79
add to favorites
launch autoscroll
font size
0
reset
guitar tuner
Tab Pro tools
  • play this tab
  • loop segment
  • change instrument
  • show fretboard
  • metronome
×
Best way to learn
"When You Were Young"
Autoscroll
slow
fast
+/-
esc
set tempo
stop
Difficulty
novice
Intro x 2

G|-----------------|-----------------|-----------------|-----------------|
D|-----------------|-----------------|-----------------|-----------------|
A|-----------------|-----------------|-2-2-2-2-2-2-2---|-----------------|
E|-0-0-0-0-0-0-0-0-|-2-2-2-4—4-4-4-4—|---------------4-|—0-0-0-0-0-0-0-0-|

Verse x 2

G|-----------------|----------------------|------------------|-----------------|
D|-----------------|----------------------|-9-9-9-9-9-9-9----|-----------------|
A|-7-7-7-7-7-7-7-7-|-9-9-9-11—11-11-11-11—|---------------11-|-7-7-7-7-7-7-7-7-|
E|-----------------|----------------------|------------------|-----------------|

Chorus x 2

G|-----------------|-----------------|-----------------|-----------------|
D|-----------------|-----------------|-----------------|-----------------|
A|-----------------|-----------------|-2-2-2-2-2-2-2---|-----------------|
E|-0-0-0-0-0-0-0-0-|-2-2-2-4—4-4-4-4—|---------------4-|—0-0-0-0-0-0-0-0-|

Verse x 2

G|-----------------|----------------------|------------------|-----------------|
D|-----------------|----------------------|-9-9-9-9-9-9-9----|-----------------|
A|-7-7-7-7-7-7-7-7-|-9-9-9-11—11-11-11-11—|---------------11-|-7-7-7-7-7-7-7-7-|
E|-----------------|----------------------|------------------|-----------------|

Verse x 3

G|-----------------|-----------------|-----------------|-----------------|
D|-----------------|-----------------|-----------------|-----------------|
A|-----------------|-----------------|-2-2-2-2-2-2-2---|-----------------|
E|-0-0-0-0-0-0-0-0-|-2-2-2-4—4-4-4-4—|---------------4-|—0-0-0-0-0-0-0-0-|

G|-----------------|-----------------|-----------------|-----------------|
D|-----------------|-----------------|-----------------|-----------------|
A|-----------------|-----------------|-----------------|-----------------|
E|-0~--------------|-2~----4~--------|-7~--------------|-0~--------------|

Bridge 1

G|-----------------|
D|-----------------|
A|-----------------|
E|-0-0-0-0-2-2-2-2-|

Verse x 2

G|-----------------|-----------------|-----------------|-----------------|
D|-----------------|-----------------|-----------------|-----------------|
A|-----------------|-----------------|-2-2-2-2-2-2-2---|-----------------|
E|-0-0-0-0-0-0-0-0-|-2-2-2-4—4-4-4-4—|---------------4-|—0-0-0-0-0-0-0-0-|

Pre-Break

G|-----------------|----------------|-----------------|
D|-----------------|----------------|-----------------|
A|-7-7-7—6-6-6—4-4-|4—2-2-2—2—1-----|-----------------|
E|-----------------|------------4—*-|-2~~-------------|

Break x 9 Bars

Verse

G|-----------------|-----------------|-----------------|-------------------|
D|-----------------|-----------------|-----------------|-------------------|
A|-----------------|-----------------|-2-2-2-2-2-2-2---|--------/7-7-7-7---|
E|-0-0-0-0-0-0-0-0-|-2-2-2-4—4-4-4-4—|---------------4-|—0-0-0-0-----------|

Verse x 4

G|-----------------|-----------------|-----------------|-----------------|
D|-----------------|-----------------|-----------------|-----------------|
A|-----------------|-----------------|-2-2-2-2-2-2-2---|-----------------|
E|-0-0-0-0-0-0-0-0-|-2-2-2-4—4-4-4-4—|---------------4-|—0-0-0-0-0-0-0-0-|

Bridge 2

G|-----------------|-----------------|------------------|-----------------|
D|-----------------|-----------------|------------------|-----------------|
A|-----------------|-----------------|------------------|-----------------|
E|-2-2-2-2-2-2-2-2-|-2-2-2-2-2-2-2-2—|-7-7-7-7-7-7--6—6-|-4-4-4-4-4-4-2-2-|

Chorus x 4

G|-----------------|-----------------|-----------------|-----------------|
D|-----------------|-----------------|-----------------|-----------------|
A|-----------------|-----------------|-2-2-2-2-2-2-2---|-----------------|
E|-0-0-0-0-0-0-0-0-|-2-2-2-4—4-4-4-4—|---------------4-|—0-0-0-0-0-0-0-0-|

Ending

G|-----------------|----------------|-----------------|
D|-----------------|----------------|-----------------|
A|-7-7-7—6-6-6—4-4-|4—2-2-2—2—1-----|-----------------|
E|-----------------|------------4—*-|-2~~-------------|
comments
print report bad tab
11 comments total. Showing first comments.
+1 reply
kaz77777 wrote on December 5 2007, 05:37 am

Perfect tab and clear with time notation. Thanks!!

+1 reply
Jay Sanderson wrote on April 18 2008, 03:12 pm

awesome tab =]

+1 reply
Emptyass wrote on April 20 2008, 04:40 pm

Great work!!

I want to post or [tab]
guest
You may want to rate the tab now too:
select rating
Please do not post tabs as comments. Select "correction" instead!